  0
SECTION
  2
HEADER
  9
$ACADVER
  1
AC1015
  9
$ACADMAINTVER
 70
    14
  9
$DWGCODEPAGE
  3
ANSI_1252
  9
$INSBASE
 10
0.0
 20
0.0
 30
0.0
  9
$EXTMIN
 10
924.6203709972254
 20
-71.42223004671243
 30
0.0
  9
$EXTMAX
 10
2465.090933745702
 20
374.9340111666549
 30
0.0
  9
$LIMMIN
 10
0.0
 20
0.0
  9
$LIMMAX
 10
420.0
 20
297.0
  9
$ORTHOMODE
 70
     0
  9
$REGENMODE
 70
     1
  9
$FILLMODE
 70
     1
  9
$QTEXTMODE
 70
     0
  9
$MIRRTEXT
 70
     1
  9
$LTSCALE
 40
1.0
  9
$ATTMODE
 70
     1
  9
$TEXTSIZE
 40
2.5
  9
$TRACEWID
 40
1.0
  9
$TEXTSTYLE
  7
Standard
  9
$CLAYER
  8
0
  9
$CELTYPE
  6
ByLayer
  9
$CECOLOR
 62
   256
  9
$CELTSCALE
 40
1.0
  9
$DISPSILH
 70
     0
  9
$DIMSCALE
 40
1.0
  9
$DIMASZ
 40
2.5
  9
$DIMEXO
 40
0.625
  9
$DIMDLI
 40
3.75
  9
$DIMRND
 40
0.0
  9
$DIMDLE
 40
0.0
  9
$DIMEXE
 40
1.25
  9
$DIMTP
 40
0.0
  9
$DIMTM
 40
0.0
  9
$DIMTXT
 40
2.5
  9
$DIMCEN
 40
2.5
  9
$DIMTSZ
 40
0.0
  9
$DIMTOL
 70
     0
  9
$DIMLIM
 70
     0
  9
$DIMTIH
 70
     0
  9
$DIMTOH
 70
     0
  9
$DIMSE1
 70
     0
  9
$DIMSE2
 70
     0
  9
$DIMTAD
 70
     1
  9
$DIMZIN
 70
     8
  9
$DIMBLK
  1

  9
$DIMASO
 70
     1
  9
$DIMSHO
 70
     1
  9
$DIMPOST
  1

  9
$DIMAPOST
  1

  9
$DIMALT
 70
     0
  9
$DIMALTD
 70
     3
  9
$DIMALTF
 40
0.03937007874016
  9
$DIMLFAC
 40
1.0
  9
$DIMTOFL
 70
     1
  9
$DIMTVP
 40
0.0
  9
$DIMTIX
 70
     0
  9
$DIMSOXD
 70
     0
  9
$DIMSAH
 70
     0
  9
$DIMBLK1
  1

  9
$DIMBLK2
  1

  9
$DIMSTYLE
  2
ISO-25
  9
$DIMCLRD
 70
     0
  9
$DIMCLRE
 70
     0
  9
$DIMCLRT
 70
     0
  9
$DIMTFAC
 40
1.0
  9
$DIMGAP
 40
0.625
  9
$DIMJUST
 70
     0
  9
$DIMSD1
 70
     0
  9
$DIMSD2
 70
     0
  9
$DIMTOLJ
 70
     0
  9
$DIMTZIN
 70
     8
  9
$DIMALTZ
 70
     0
  9
$DIMALTTZ
 70
     0
  9
$DIMUPT
 70
     0
  9
$DIMDEC
 70
     2
  9
$DIMTDEC
 70
     2
  9
$DIMALTU
 70
     2
  9
$DIMALTTD
 70
     3
  9
$DIMTXSTY
  7
Standard
  9
$DIMAUNIT
 70
     0
  9
$DIMADEC
 70
     0
  9
$DIMALTRND
 40
0.0
  9
$DIMAZIN
 70
     0
  9
$DIMDSEP
 70
    44
  9
$DIMATFIT
 70
     3
  9
$DIMFRAC
 70
     0
  9
$DIMLDRBLK
  1

  9
$DIMLUNIT
 70
     2
  9
$DIMLWD
 70
    -2
  9
$DIMLWE
 70
    -2
  9
$DIMTMOVE
 70
     0
  9
$LUNITS
 70
     2
  9
$LUPREC
 70
     4
  9
$SKETCHINC
 40
1.0
  9
$FILLETRAD
 40
10.0
  9
$AUNITS
 70
     0
  9
$AUPREC
 70
     0
  9
$MENU
  1
.
  9
$ELEVATION
 40
0.0
  9
$PELEVATION
 40
0.0
  9
$THICKNESS
 40
0.0
  9
$LIMCHECK
 70
     0
  9
$CHAMFERA
 40
10.0
  9
$CHAMFERB
 40
10.0
  9
$CHAMFERC
 40
20.0
  9
$CHAMFERD
 40
0.0
  9
$SKPOLY
 70
     0
  9
$TDCREATE
 40
2452984.401453715
  9
$TDUCREATE
 40
2452984.359787048
  9
$TDUPDATE
 40
2452989.725380034
  9
$TDUUPDATE
 40
2452989.683713368
  9
$TDINDWG
 40
0.0158154514
  9
$TDUSRTIMER
 40
0.0158150810
  9
$USRTIMER
 70
     1
  9
$ANGBASE
 50
0.0
  9
$ANGDIR
 70
     0
  9
$PDMODE
 70
     0
  9
$PDSIZE
 40
0.0
  9
$PLINEWID
 40
0.0
  9
$SPLFRAME
 70
     0
  9
$SPLINETYPE
 70
     6
  9
$SPLINESEGS
 70
     8
  9
$HANDSEED
  5
2E3
  9
$SURFTAB1
 70
     6
  9
$SURFTAB2
 70
     6
  9
$SURFTYPE
 70
     6
  9
$SURFU
 70
     6
  9
$SURFV
 70
     6
  9
$UCSBASE
  2

  9
$UCSNAME
  2

  9
$UCSORG
 10
944.8556523714639
 20
151.7558905599717
 30
0.0
  9
$UCSXDIR
 10
1.0
 20
0.0
 30
0.0
  9
$UCSYDIR
 10
0.0
 20
1.0
 30
0.0
  9
$UCSORTHOREF
  2

  9
$UCSORTHOVIEW
 70
     0
  9
$UCSORGTOP
 10
0.0
 20
0.0
 30
0.0
  9
$UCSORGBOTTOM
 10
0.0
 20
0.0
 30
0.0
  9
$UCSORGLEFT
 10
0.0
 20
0.0
 30
0.0
  9
$UCSORGRIGHT
 10
0.0
 20
0.0
 30
0.0
  9
$UCSORGFRONT
 10
0.0
 20
0.0
 30
0.0
  9
$UCSORGBACK
 10
0.0
 20
0.0
 30
0.0
  9
$PUCSBASE
  2

  9
$PUCSNAME
  2

  9
$PUCSORG
 10
0.0
 20
0.0
 30
0.0
  9
$PUCSXDIR
 10
1.0
 20
0.0
 30
0.0
  9
$PUCSYDIR
 10
0.0
 20
1.0
 30
0.0
  9
$PUCSORTHOREF
  2

  9
$PUCSORTHOVIEW
 70
     0
  9
$PUCSORGTOP
 10
0.0
 20
0.0
 30
0.0
  9
$PUCSORGBOTTOM
 10
0.0
 20
0.0
 30
0.0
  9
$PUCSORGLEFT
 10
0.0
 20
0.0
 30
0.0
  9
$PUCSORGRIGHT
 10
0.0
 20
0.0
 30
0.0
  9
$PUCSORGFRONT
 10
0.0
 20
0.0
 30
0.0
  9
$PUCSORGBACK
 10
0.0
 20
0.0
 30
0.0
  9
$USERI1
 70
     0
  9
$USERI2
 70
     0
  9
$USERI3
 70
     0
  9
$USERI4
 70
     0
  9
$USERI5
 70
     0
  9
$USERR1
 40
0.0
  9
$USERR2
 40
0.0
  9
$USERR3
 40
0.0
  9
$USERR4
 40
0.0
  9
$USERR5
 40
0.0
  9
$WORLDVIEW
 70
     1
  9
$SHADEDGE
 70
     3
  9
$SHADEDIF
 70
    70
  9
$TILEMODE
 70
     1
  9
$MAXACTVP
 70
    64
  9
$PINSBASE
 10
0.0
 20
0.0
 30
0.0
  9
$PLIMCHECK
 70
     0
  9
$PEXTMIN
 10
28.8459315776825
 20
19.79506721496582
 30
0.0
  9
$PEXTMAX
 10
259.6133841991424
 20
178.1556049346923
 30
0.0
  9
$PLIMMIN
 10
-4.23333740234375
 20
-6.01133346557617
  9
$PLIMMAX
 10
292.6926574707031
 20
203.9619941711424
  9
$UNITMODE
 70
     0
  9
$VISRETAIN
 70
     1
  9
$PLINEGEN
 70
     0
  9
$PSLTSCALE
 70
     1
  9
$TREEDEPTH
 70
  3020
  9
$CMLSTYLE
  2
Standard
  9
$CMLJUST
 70
     0
  9
$CMLSCALE
 40
20.0
  9
$PROXYGRAPHICS
 70
     1
  9
$MEASUREMENT
 70
     1
  9
$CELWEIGHT
370
    -1
  9
$ENDCAPS
280
     0
  9
$JOINSTYLE
280
     0
  9
$LWDISPLAY
290
     0
  9
$INSUNITS
 70
     4
  9
$HYPERLINKBASE
  1

  9
$STYLESHEET
  1

  9
$XEDIT
290
     1
  9
$CEPSNTYPE
380
     0
  9
$PSTYLEMODE
290
     1
  9
$FINGERPRINTGUID
  2
{1F0C9108-7A24-43FE-92C0-F61D6143634A}
  9
$VERSIONGUID
  2
{3A1E3D03-B1D7-41B7-BEC1-F946016416DC}
  9
$EXTNAMES
290
     1
  9
$PSVPSCALE
 40
0.0
  9
$OLESTARTUP
290
     0
  0
ENDSEC
  0
SECTION
  2
CLASSES
  0
CLASS
  1
ACDBDICTIONARYWDFLT
  2
AcDbDictionaryWithDefault
  3
AutoCAD 2000
 90
        0
280
     0
281
     0
  0
CLASS
  1
ACDBPLACEHOLDER
  2
AcDbPlaceHolder
  3
AutoCAD 2000
 90
        0
280
     0
281
     0
  0
CLASS
  1
LAYOUT
  2
AcDbLayout
  3
AutoCAD 2000
 90
        0
280
     0
281
     0
  0
CLASS
  1
DICTIONARYVAR
  2
AcDbDictionaryVar
  3
AutoCAD 2000
 90
        0
280
     0
281
     0
  0
ENDSEC
  0
SECTION
  2
TABLES
  0
TABLE
  2
VPORT
  5
8
330
0
100
AcDbSymbolTable
 70
     2
  0
VPORT
  5
2E2
330
8
100
AcDbSymbolTableRecord
100
AcDbViewportTableRecord
  2
*Active
 70
     0
 10
0.0
 20
0.0
 11
1.0
 21
1.0
 12
1706.268056951248
 22
186.7413312958094
 13
0.0
 23
0.0
 14
10.0
 24
10.0
 15
10.0
 25
10.0
 16
0.0
 26
0.0
 36
1.0
 17
0.0
 27
0.0
 37
0.0
 40
1107.67413063851
 41
1.41871921182266
 42
50.0
 43
0.0
 44
0.0
 50
0.0
 51
0.0
 71
     0
 72
   100
 73
     1
 74
     3
 75
     0
 76
     0
 77
     0
 78
     0
281
     0
 65
     1
110
944.8556523714639
120
151.7558905599717
130
0.0
111
1.0
121
0.0
131
0.0
112
0.0
122
1.0
132
0.0
 79
     0
146
0.0
  0
ENDTAB
  0
TABLE
  2
LTYPE
  5
5
330
0
100
AcDbSymbolTable
 70
     2
  0
LTYPE
  5
14
330
5
100
AcDbSymbolTableRecord
100
AcDbLinetypeTableRecord
  2
ByBlock
 70
     0
  3

 72
    65
 73
     0
 40
0.0
  0
LTYPE
  5
15
330
5
100
AcDbSymbolTableRecord
100
AcDbLinetypeTableRecord
  2
ByLayer
 70
     0
  3

 72
    65
 73
     0
 40
0.0
  0
LTYPE
  5
16
330
5
100
AcDbSymbolTableRecord
100
AcDbLinetypeTableRecord
  2
Continuous
 70
     0
  3
Solid line
 72
    65
 73
     0
 40
0.0
  0
ENDTAB
  0
TABLE
  2
LAYER
  5
2
102
{ACAD_XDICTIONARY
360
2B
102
}
330
0
100
AcDbSymbolTable
 70
     2
  0
LAYER
  5
10
330
2
100
AcDbSymbolTableRecord
100
AcDbLayerTableRecord
  2
0
 70
     0
 62
     7
  6
Continuous
370
    -3
390
F
  0
ENDTAB
  0
TABLE
  2
STYLE
  5
3
330
0
100
AcDbSymbolTable
 70
     2
  0
STYLE
  5
11
330
3
100
AcDbSymbolTableRecord
100
AcDbTextStyleTableRecord
  2
Standard
 70
     0
 40
0.0
 41
1.0
 50
0.0
 71
     0
 42
2.5
  3
txt
  4

  0
ENDTAB
  0
TABLE
  2
VIEW
  5
6
330
0
100
AcDbSymbolTable
 70
     0
  0
ENDTAB
  0
TABLE
  2
UCS
  5
7
330
0
100
AcDbSymbolTable
 70
     0
  0
ENDTAB
  0
TABLE
  2
APPID
  5
9
330
0
100
AcDbSymbolTable
 70
     1
  0
APPID
  5
12
330
9
100
AcDbSymbolTableRecord
100
AcDbRegAppTableRecord
  2
ACAD
 70
     0
  0
ENDTAB
  0
TABLE
  2
DIMSTYLE
  5
A
330
0
100
AcDbSymbolTable
 70
     4
100
AcDbDimStyleTable
 71
     0
  0
DIMSTYLE
105
27
330
A
100
AcDbSymbolTableRecord
100
AcDbDimStyleTableRecord
  2
ISO-25
 70
     0
 41
2.5
 42
0.625
 43
3.75
 44
1.25
 73
     0
 74
     0
 77
     1
 78
     8
140
2.5
141
2.5
143
0.03937007874016
147
0.625
171
     3
172
     1
271
     2
272
     2
274
     3
278
    44
283
     0
284
     8
340
11
  0
ENDTAB
  0
TABLE
  2
BLOCK_RECORD
  5
1
330
0
100
AcDbSymbolTable
 70
     3
  0
BLOCK_RECORD
  5
1F
330
1
100
AcDbSymbolTableRecord
100
AcDbBlockTableRecord
  2
*Model_Space
340
22
  0
BLOCK_RECORD
  5
1B
330
1
100
AcDbSymbolTableRecord
100
AcDbBlockTableRecord
  2
*Paper_Space
340
1E
  0
BLOCK_RECORD
  5
260
330
1
100
AcDbSymbolTableRecord
100
AcDbBlockTableRecord
  2
au18d
340
0
310
2800000020000000200000000100080000000000000400000000000000000000000000000000000000000000000080000080000000808000800000008000800080800000C0C0C000C0DCC000F0CAA6000020400000206000002080000020A0000020C0000020E00000400000004020000040400000406000004080000040A0
310
000040C0000040E00000600000006020000060400000606000006080000060A0000060C0000060E00000800000008020000080400000806000008080000080A0000080C0000080E00000A0000000A0200000A0400000A0600000A0800000A0A00000A0C00000A0E00000C0000000C0200000C0400000C0600000C0800000C0
310
A00000C0C00000C0E00000E0000000E0200000E0400000E0600000E0800000E0A00000E0C00000E0E00040000000400020004000400040006000400080004000A0004000C0004000E00040200000402020004020400040206000402080004020A0004020C0004020E000404000004040200040404000404060004040800040
310
40A0004040C0004040E00040600000406020004060400040606000406080004060A0004060C0004060E00040800000408020004080400040806000408080004080A0004080C0004080E00040A0000040A0200040A0400040A0600040A0800040A0A00040A0C00040A0E00040C0000040C0200040C0400040C0600040C08000
310
40C0A00040C0C00040C0E00040E0000040E0200040E0400040E0600040E0800040E0A00040E0C00040E0E00080000000800020008000400080006000800080008000A0008000C0008000E00080200000802020008020400080206000802080008020A0008020C0008020E00080400000804020008040400080406000804080
310
008040A0008040C0008040E00080600000806020008060400080606000806080008060A0008060C0008060E00080800000808020008080400080806000808080008080A0008080C0008080E00080A0000080A0200080A0400080A0600080A0800080A0A00080A0C00080A0E00080C0000080C0200080C0400080C0600080C0
310
800080C0A00080C0C00080C0E00080E0000080E0200080E0400080E0600080E0800080E0A00080E0C00080E0E000C0000000C0002000C0004000C0006000C0008000C000A000C000C000C000E000C0200000C0202000C0204000C0206000C0208000C020A000C020C000C020E000C0400000C0402000C0404000C0406000C0
310
408000C040A000C040C000C040E000C0600000C0602000C0604000C0606000C0608000C060A000C060C000C060E000C0800000C0802000C0804000C0806000C0808000C080A000C080C000C080E000C0A00000C0A02000C0A04000C0A06000C0A08000C0A0A000C0A0C000C0A0E000C0C00000C0C02000C0C04000C0C06000
310
C0C08000C0C0A000F0FBFF00A4A0A000808080000000FF0000FF000000FFFF00FF000000FF00FF00FFFF0000FFFFFF0000000000000000000000000000000000000000000000000000000000000000000000000000000000000000000000000000000000000000000000000000000000000000000000000000000000000000
310
00000000000000000000000000000000000000000000000000000000000000000000000000000000000000000000000000000000000000000000000000000000000000000000000000000000000000000000000000000000000000000000000000000000000000000000000000000000000000000000000000000000000000
310
00000000000000000000000000000000000000000000000000000000000000000000000000000000000000000000000000000000000000000000000000000000000000000000000000000000000000000000000000000000000000000000000000000000000000000000000000000000000000000000000000000000000000
310
000000000000000000000000000000000000000000000000FFFFFFFFFFFFFFFF0000000000000000000000000000000000000000000000FFFFFFFFFFFFFFFFFFFF000000000000000000000000000000000000000000FFFF000000000000000000FF0000000000000000000000000000000000000000FF0000000000000000
310
0000FF000000000000000000000000000000000000FFFE000000000000000000000000FEFF000000000000000000000000FEFF0000FFFF000000000000000000000000FEFF000000000000000000000000FEFF000000000000000000000000000000000000FF00000000000000000000FF0000000000000000000000000000
310
000000000000FF000000000000000000FFFF000000000000000000000000000000000000000000FFFFFFFFFFFFFFFFFFFF0000000000000000000000000000000000000000000000FFFFFFFFFFFFFFFF0000000000000000000000000000000000000000000000000000000000000000000000000000000000000000000000
310
00000000000000000000000000000000000000000000000000000000000000000000000000000000000000000000000000000000000000000000000000000000000000000000000000000000000000000000000000000000000000000000000000000000000000000000000000000000000000000000000000000000000000
310
00000000000000000000000000000000000000000000000000000000000000000000000000000000000000000000000000000000000000000000000000000000000000000000000000000000000000000000000000000000000000000000000000000000000000000000000000000000000000000000000000000000000000
310
0000000000000000000000000000000000000000000000000000000000000000000000000000000000000000000000000000000000000000
102
{BLKREFS
331
2C9
102
}
1001
ACAD
1000
DesignCenter Data
1002
{
1070
     1
1070
     4
1002
}
  0
ENDTAB
  0
ENDSEC
  0
SECTION
  2
BLOCKS
  0
BLOCK
  5
20
330
1F
100
AcDbEntity
  8
0
100
AcDbBlockBegin
  2
*Model_Space
 70
     0
 10
0.0
 20
0.0
 30
0.0
  3
*Model_Space
  1

  0
ENDBLK
  5
21
330
1F
100
AcDbEntity
  8
0
100
AcDbBlockEnd
  0
BLOCK
  5
1C
330
1B
100
AcDbEntity
 67
     1
  8
0
100
AcDbBlockBegin
  2
*Paper_Space
 70
     0
 10
0.0
 20
0.0
 30
0.0
  3
*Paper_Space
  1

  0
ENDBLK
  5
1D
330
1B
100
AcDbEntity
 67
     1
  8
0
100
AcDbBlockEnd
  0
BLOCK
  5
261
330
260
100
AcDbEntity
  8
0
100
AcDbBlockBegin
  2
au18d
 70
     0
 10
0.0
 20
0.0
 30
0.0
  3
au18d
  1

  0
LINE
  5
263
330
260
100
AcDbEntity
  8
0
 62
     7
100
AcDbLine
 10
36.71795200908309
 20
-24.67083250185669
 30
0.0
 11
145.9138996268301
 21
-178.5952571197553
 31
0.0
  0
LINE
  5
264
330
260
100
AcDbEntity
  8
0
 62
     7
100
AcDbLine
 10
26.8541094182583
 20
-26.53110075205359
 30
0.0
 11
157.1263975993606
 21
-210.165085706585
 31
0.0
  0
LINE
  5
265
330
260
100
AcDbEntity
  8
0
 62
     7
100
AcDbLine
 10
32.23226540830001
 20
-12.69351641695584
 30
0.0
 11
29.79332591397723
 21
11.69412941840755
 31
0.0
  0
ARC
  5
266
330
260
100
AcDbEntity
  8
0
 62
     7
100
AcDbCircle
 10
-0.150284093202572
 20
9.499999999999543
 30
0.0
 40
20.0
100
AcDbArc
 50
220.5383065500976
 51
270.0
  0
LINE
  5
267
330
260
100
AcDbEntity
  8
0
 62
     7
100
AcDbLine
 10
6.545248191543576
 20
-6.787101521733802
 30
0.0
 11
-7.257391819077382
 21
5.640851365816615
 31
0.0
  0
LINE
  5
268
330
260
100
AcDbEntity
  8
0
 62
     7
100
AcDbLine
 10
22.36842281747521
 20
-14.55378466715365
 30
0.0
 11
20.11312721772992
 21
7.997553924336442
 31
0.0
  0
LINE
  5
269
330
260
100
AcDbEntity
  8
0
 62
     7
100
AcDbLine
 10
-0.150284093202572
 20
-10.50000000000044
 30
0.0
 11
5.119999999998981
 21
-10.50000000000044
 31
0.0
  0
ARC
  5
26A
330
260
100
AcDbEntity
  8
0
 62
     7
100
AcDbCircle
 10
5.119999999998981
 20
-8.370000000000343
 30
0.0
 40
2.129999999999999
100
AcDbArc
 50
270.0
 51
47.99999999999089
  0
ARC
  5
26B
330
260
100
AcDbEntity
  8
0
 62
     7
100
AcDbCircle
 10
57.10817749829947
 20
-10.20574679527135
 30
0.0
 40
25.0
100
AcDbArc
 50
185.7110000000018
 51
215.3523750580351
  0
ARC
  5
26C
330
260
100
AcDbEntity
  8
0
 62
     7
100
AcDbCircle
 10
47.24433490747651
 20
-12.06601504546915
 30
0.0
 40
25.0
100
AcDbArc
 50
185.7110000000001
 51
215.3523750580326
  0
LINE
  5
26D
330
260
100
AcDbEntity
  8
0
 62
     7
100
AcDbLine
 10
-5.75
 20
22.49999999999953
 30
0.0
 11
17.85288811077771
 21
22.49999999999953
 31
0.0
  0
LINE
  5
26E
330
260
100
AcDbEntity
  8
0
 62
     7
100
AcDbLine
 10
-5.25
 20
12.49999999999954
 30
0.0
 11
15.13794479972966
 21
12.49999999999954
 31
0.0
  0
LINE
  5
26F
330
260
100
AcDbEntity
  8
0
 62
     4
100
AcDbLine
 10
5.0
 20
0.0
 30
0.0
 11
-5.0
 21
0.0
 31
0.0
  0
ARC
  5
270
330
260
100
AcDbEntity
  8
0
 62
     7
100
AcDbCircle
 10
-5.75
 20
10.49999999999953
 30
0.0
 40
12.0
100
AcDbArc
 50
90.0
 51
180.0
  0
ARC
  5
271
330
260
100
AcDbEntity
  8
0
 62
     7
100
AcDbCircle
 10
-7.75
 20
3.000437081158906
 30
0.0
 40
10.0
100
AcDbArc
 50
180.0
 51
220.5383065500909
  0
LINE
  5
272
330
260
100
AcDbEntity
  8
0
 62
     7
100
AcDbLine
 10
-17.75
 20
10.49999999999953
 30
0.0
 11
-17.75
 21
3.000437081158906
 31
0.0
  0
ARC
  5
273
330
260
100
AcDbEntity
  8
0
 62
     7
100
AcDbCircle
 10
-5.25
 20
7.870285842248903
 30
0.0
 40
3.0
100
AcDbArc
 50
180.0
 51
227.9999999999908
  0
LINE
  5
274
330
260
100
AcDbEntity
  8
0
 62
     7
100
AcDbLine
 10
-8.25
 20
9.499999999999543
 30
0.0
 11
-8.25
 21
7.870285842248903
 31
0.0
  0
ARC
  5
275
330
260
100
AcDbEntity
  8
0
 62
     7
100
AcDbCircle
 10
-5.25
 20
9.499999999999543
 30
0.0
 40
3.0
100
AcDbArc
 50
90.0
 51
180.0
  0
LINE
  5
276
330
260
100
AcDbEntity
  8
0
 62
     4
100
AcDbLine
 10
0.0
 20
5.0
 30
0.0
 11
0.0
 21
-5.0
 31
0.0
  0
ARC
  5
277
330
260
100
AcDbEntity
  8
0
 62
     7
100
AcDbCircle
 10
17.85288811077771
 20
10.49999999999953
 30
0.0
 40
12.0
100
AcDbArc
 50
5.710999999998601
 51
90.0
  0
ARC
  5
278
330
260
100
AcDbEntity
  8
0
 62
     7
100
AcDbCircle
 10
15.13794479972966
 20
7.499999999999544
 30
0.0
 40
5.0
100
AcDbArc
 50
5.711000000000223
 51
90.0
  0
LINE
  5
279
330
260
100
AcDbEntity
  8
0
 62
     7
100
AcDbLine
 10
1292.915423905514
 20
210.1999999999993
 30
0.0
 11
1125.0
 21
210.1999999999993
 31
0.0
  0
LINE
  5
27A
330
260
100
AcDbEntity
  8
0
 62
     7
100
AcDbLine
 10
1322.48337691142
 20
220.6999999999998
 30
0.0
 11
1125.0
 21
220.6999999999998
 31
0.0
  0
LINE
  5
27B
330
260
100
AcDbEntity
  8
0
 62
     7
100
AcDbLine
 10
713.2820479909169
 20
-24.67083250185669
 30
0.0
 11
604.0861003731678
 21
-178.5952571197558
 31
0.0
  0
LINE
  5
27C
330
260
100
AcDbEntity
  8
0
 62
     7
100
AcDbLine
 10
723.1458905817418
 20
-26.53110075205268
 30
0.0
 11
592.8736024006392
 21
-210.165085706586
 31
0.0
  0
LINE
  5
27D
330
260
100
AcDbEntity
  8
0
 62
     7
100
AcDbLine
 10
207.0845760944848
 20
-210.2000000000006
 30
0.0
 11
375.0
 21
-210.2000000000006
 31
0.0
  0
LINE
  5
27E
330
260
100
AcDbEntity
  8
0
 62
     7
100
AcDbLine
 10
177.5166230885788
 20
-220.7000000000006
 30
0.0
 11
375.0
 21
-220.7000000000006
 31
0.0
  0
ARC
  5
27F
330
260
100
AcDbEntity
  8
0
 62
     7
100
AcDbCircle
 10
207.0845760944848
 20
-135.2000000000002
 30
0.0
 40
75.0
100
AcDbArc
 50
215.3523750580326
 51
270.0
  0
ARC
  5
280
330
260
100
AcDbEntity
  8
0
 62
     7
100
AcDbCircle
 10
177.5166230885788
 20
-195.7000000000006
 30
0.0
 40
25.0
100
AcDbArc
 50
215.3523750580326
 51
270.0
  0
LINE
  5
281
330
260
100
AcDbEntity
  8
0
 62
     7
100
AcDbLine
 10
542.9154239055151
 20
-210.2000000000006
 30
0.0
 11
375.0
 21
-210.2000000000006
 31
0.0
  0
LINE
  5
282
330
260
100
AcDbEntity
  8
0
 62
     7
100
AcDbLine
 10
572.4833769114211
 20
-220.7000000000006
 30
0.0
 11
375.0
 21
-220.7000000000006
 31
0.0
  0
ARC
  5
283
330
260
100
AcDbEntity
  8
0
 62
     7
100
AcDbCircle
 10
542.9154239055151
 20
-135.2000000000002
 30
0.0
 40
75.0
100
AcDbArc
 50
270.0
 51
324.6476249419659
  0
ARC
  5
284
330
260
100
AcDbEntity
  8
0
 62
     7
100
AcDbCircle
 10
572.4833769114211
 20
-195.7000000000006
 30
0.0
 40
25.0
100
AcDbArc
 50
270.0
 51
324.6476249419673
  0
LINE
  5
285
330
260
100
AcDbEntity
  8
0
 62
     7
100
AcDbLine
 10
786.717952009083
 20
24.67083250185578
 30
0.0
 11
895.913899626832
 21
178.5952571197548
 31
0.0
  0
LINE
  5
286
330
260
100
AcDbEntity
  8
0
 62
     7
100
AcDbLine
 10
776.8541094182581
 20
26.53110075205177
 30
0.0
 11
907.1263975993614
 21
210.165085706585
 31
0.0
  0
LINE
  5
287
330
260
100
AcDbEntity
  8
0
 62
     7
100
AcDbLine
 10
782.2322654083009
 20
12.69351641695493
 30
0.0
 11
779.7933259139782
 21
-11.69412941840846
 31
0.0
  0
LINE
  5
288
330
260
100
AcDbEntity
  8
0
 62
     7
100
AcDbLine
 10
732.2499999999998
 20
-10.50000000000044
 30
0.0
 11
732.2499999999998
 21
-3.000437081159816
 31
0.0
  0
LINE
  5
289
330
260
100
AcDbEntity
  8
0
 62
     7
100
AcDbLine
 10
756.5452481915444
 20
6.787101521732893
 30
0.0
 11
742.7426081809234
 21
-5.640851365817525
 31
0.0
  0
LINE
  5
28A
330
260
100
AcDbEntity
  8
0
 62
     7
100
AcDbLine
 10
772.3684228174762
 20
14.55378466715046
 30
0.0
 11
770.1131272177307
 21
-7.997553924337352
 31
0.0
  0
LINE
  5
28B
330
260
100
AcDbEntity
  8
0
 62
     7
100
AcDbLine
 10
717.7677345917
 20
-12.69351641695584
 30
0.0
 11
720.2066740860208
 21
11.69412941840755
 31
0.0
  0
ARC
  5
28C
330
260
100
AcDbEntity
  8
0
 62
     7
100
AcDbCircle
 10
750.1502840932024
 20
9.499999999999543
 30
0.0
 40
20.0
100
AcDbArc
 50
270.0
 51
319.4616934499023
  0
LINE
  5
28D
330
260
100
AcDbEntity
  8
0
 62
     7
100
AcDbLine
 10
743.4547518084546
 20
-6.787101521733802
 30
0.0
 11
757.2573918190754
 21
5.640851365816615
 31
0.0
  0
LINE
  5
28E
330
260
100
AcDbEntity
  8
0
 62
     7
100
AcDbLine
 10
727.6315771825246
 20
-14.55378466715137
 30
0.0
 11
729.88687278227
 21
7.997553924336442
 31
0.0
  0
ARC
  5
28F
330
260
100
AcDbEntity
  8
0
 62
     7
100
AcDbCircle
 10
744.2499999999999
 20
-10.50000000000044
 30
0.0
 40
12.0
100
AcDbArc
 50
180.0
 51
270.0
  0
ARC
  5
290
330
260
100
AcDbEntity
  8
0
 62
     7
100
AcDbCircle
 10
692.8918225016985
 20
-10.20574679527135
 30
0.0
 40
25.0
100
AcDbArc
 50
324.6476249419673
 51
354.2889999999997
  0
ARC
  5
291
330
260
100
AcDbEntity
  8
0
 62
     7
100
AcDbCircle
 10
702.7556650925235
 20
-12.06601504546823
 30
0.0
 40
25.0
100
AcDbArc
 50
324.6476249419673
 51
354.2890000000019
  0
ARC
  5
292
330
260
100
AcDbEntity
  8
0
 62
     7
100
AcDbCircle
 10
767.8528881107776
 20
-10.50000000000044
 30
0.0
 40
12.0
100
AcDbArc
 50
270.0
 51
354.2890000000013
  0
LINE
  5
293
330
260
100
AcDbEntity
  8
0
 62
     7
100
AcDbLine
 10
744.2499999999999
 20
-22.50000000000044
 30
0.0
 11
767.8528881107776
 21
-22.50000000000044
 31
0.0
  0
LINE
  5
294
330
260
100
AcDbEntity
  8
0
 62
     7
100
AcDbLine
 10
744.7499999999998
 20
-12.50000000000044
 30
0.0
 11
765.1379447997307
 21
-12.50000000000044
 31
0.0
  0
ARC
  5
295
330
260
100
AcDbEntity
  8
0
 62
     7
100
AcDbCircle
 10
744.7499999999998
 20
-7.870285842249812
 30
0.0
 40
3.0
100
AcDbArc
 50
131.9999999999988
 51
180.0
  0
LINE
  5
296
330
260
100
AcDbEntity
  8
0
 62
     7
100
AcDbLine
 10
741.75
 20
-9.500000000000452
 30
0.0
 11
741.75
 21
-7.870285842249812
 31
0.0
  0
ARC
  5
297
330
260
100
AcDbEntity
  8
0
 62
     7
100
AcDbCircle
 10
744.7499999999998
 20
-9.500000000000452
 30
0.0
 40
3.0
100
AcDbArc
 50
180.0
 51
270.0
  0
LINE
  5
298
330
260
100
AcDbEntity
  8
0
 62
     7
100
AcDbLine
 10
750.1502840932024
 20
-10.50000000000044
 30
0.0
 11
744.880000000001
 21
-10.50000000000044
 31
0.0
  0
ARC
  5
299
330
260
100
AcDbEntity
  8
0
 62
     7
100
AcDbCircle
 10
744.880000000001
 20
-8.370000000000343
 30
0.0
 40
2.129999999999999
100
AcDbArc
 50
132.0000000000447
 51
270.0
  0
ARC
  5
29A
330
260
100
AcDbEntity
  8
0
 62
     7
100
AcDbCircle
 10
765.1379447997307
 20
-7.500000000000453
 30
0.0
 40
5.0
100
AcDbArc
 50
270.0
 51
354.2889999999997
  0
ARC
  5
29B
330
260
100
AcDbEntity
  8
0
 62
     7
100
AcDbCircle
 10
742.25
 20
-3.000437081159816
 30
0.0
 40
10.0
100
AcDbArc
 50
139.4616934499035
 51
180.0
  0
LINE
  5
29C
330
260
100
AcDbEntity
  8
0
 62
     7
100
AcDbLine
 10
755.75
 20
22.49999999999953
 30
0.0
 11
732.1471118892223
 21
22.49999999999953
 31
0.0
  0
ARC
  5
29D
330
260
100
AcDbEntity
  8
0
 62
     7
100
AcDbCircle
 10
734.8620552002685
 20
7.499999999999544
 30
0.0
 40
5.0
100
AcDbArc
 50
90.0
 51
174.2889999999964
  0
ARC
  5
29E
330
260
100
AcDbEntity
  8
0
 62
     7
100
AcDbCircle
 10
732.1471118892223
 20
10.49999999999953
 30
0.0
 40
12.0
100
AcDbArc
 50
90.0
 51
174.2890000000019
  0
ARC
  5
29F
330
260
100
AcDbEntity
  8
0
 62
     7
100
AcDbCircle
 10
797.2443349074765
 20
12.06601504546733
 30
0.0
 40
25.0
100
AcDbArc
 50
144.6476249419673
 51
174.2890000000019
  0
ARC
  5
2A0
330
260
100
AcDbEntity
  8
0
 62
     7
100
AcDbCircle
 10
755.75
 20
10.49999999999953
 30
0.0
 40
12.0
100
AcDbArc
 50
0.0
 51
90.0
  0
LINE
  5
2A1
330
260
100
AcDbEntity
  8
0
 62
     7
100
AcDbLine
 10
749.8497159067973
 20
10.49999999999953
 30
0.0
 11
755.1199999999997
 21
10.49999999999953
 31
0.0
  0
LINE
  5
2A2
330
260
100
AcDbEntity
  8
0
 62
     7
100
AcDbLine
 10
755.25
 20
12.49999999999954
 30
0.0
 11
734.8620552002685
 21
12.49999999999954
 31
0.0
  0
LINE
  5
2A3
330
260
100
AcDbEntity
  8
0
 62
     4
100
AcDbLine
 10
755.0
 20
0.0
 30
0.0
 11
745.0
 21
0.0
 31
0.0
  0
ARC
  5
2A4
330
260
100
AcDbEntity
  8
0
 62
     7
100
AcDbCircle
 10
749.8497159067973
 20
-9.500000000000452
 30
0.0
 40
20.0
100
AcDbArc
 50
90.0
 51
139.461693449901
  0
LINE
  5
2A5
330
260
100
AcDbEntity
  8
0
 62
     4
100
AcDbLine
 10
750.0
 20
5.0
 30
0.0
 11
750.0
 21
-5.0
 31
0.0
  0
ARC
  5
2A6
330
260
100
AcDbEntity
  8
0
 62
     7
100
AcDbCircle
 10
755.1199999999997
 20
8.369999999999436
 30
0.0
 40
2.129999999999999
100
AcDbArc
 50
312.0000000000091
 51
90.0
  0
LINE
  5
2A7
330
260
100
AcDbEntity
  8
0
 62
     7
100
AcDbLine
 10
767.75
 20
10.49999999999953
 30
0.0
 11
767.75
 21
3.000437081158906
 31
0.0
  0
ARC
  5
2A8
330
260
100
AcDbEntity
  8
0
 62
     7
100
AcDbCircle
 10
757.75
 20
3.000437081158906
 30
0.0
 40
10.0
100
AcDbArc
 50
319.461693449909
 51
0.0
  0
ARC
  5
2A9
330
260
100
AcDbEntity
  8
0
 62
     7
100
AcDbCircle
 10
755.25
 20
7.870285842248903
 30
0.0
 40
3.0
100
AcDbArc
 50
311.9999999999837
 51
0.0
  0
LINE
  5
2AA
330
260
100
AcDbEntity
  8
0
 62
     7
100
AcDbLine
 10
758.25
 20
9.499999999999543
 30
0.0
 11
758.25
 21
7.870285842248903
 31
0.0
  0
ARC
  5
2AB
330
260
100
AcDbEntity
  8
0
 62
     7
100
AcDbCircle
 10
755.25
 20
9.499999999999543
 30
0.0
 40
3.0
100
AcDbArc
 50
0.0
 51
90.0
  0
ARC
  5
2AC
330
260
100
AcDbEntity
  8
0
 62
     7
100
AcDbCircle
 10
807.1081774983012
 20
10.20574679527044
 30
0.0
 40
25.0
100
AcDbArc
 50
144.6476249419673
 51
174.288999999998
  0
LINE
  5
2AD
330
260
100
AcDbEntity
  8
0
 62
     7
100
AcDbLine
 10
957.0845760944846
 20
210.1999999999993
 30
0.0
 11
1125.0
 21
210.1999999999993
 31
0.0
  0
LINE
  5
2AE
330
260
100
AcDbEntity
  8
0
 62
     7
100
AcDbLine
 10
927.5166230885787
 20
220.6999999999998
 30
0.0
 11
1125.0
 21
220.6999999999998
 31
0.0
  0
ARC
  5
2AF
330
260
100
AcDbEntity
  8
0
 62
     7
100
AcDbCircle
 10
957.0845760944846
 20
135.1999999999992
 30
0.0
 40
75.0
100
AcDbArc
 50
90.0
 51
144.647624941966
  0
ARC
  5
2B0
330
260
100
AcDbEntity
  8
0
 62
     7
100
AcDbCircle
 10
927.5166230885787
 20
195.6999999999998
 30
0.0
 40
25.0
100
AcDbArc
 50
90.0
 51
144.647624941966
  0
LINE
  5
2B1
330
260
100
AcDbEntity
  8
0
 62
     7
100
AcDbLine
 10
1463.282047990916
 20
24.67083250185578
 30
0.0
 11
1354.086100373168
 21
178.5952571197544
 31
0.0
  0
LINE
  5
2B2
330
260
100
AcDbEntity
  8
0
 62
     7
100
AcDbLine
 10
1473.14589058174
 20
26.53110075205268
 30
0.0
 11
1342.873602400638
 21
210.1650857065846
 31
0.0
  0
LINE
  5
2B3
330
260
100
AcDbEntity
  8
0
 62
     7
100
AcDbLine
 10
1467.767734591698
 20
12.69351641695493
 30
0.0
 11
1470.206674086021
 21
-11.69412941840846
 31
0.0
  0
LINE
  5
2B4
330
260
100
AcDbEntity
  8
0
 62
     7
100
AcDbLine
 10
1517.75
 20
-10.50000000000044
 30
0.0
 11
1517.75
 21
-3.000437081159816
 31
0.0
  0
LINE
  5
2B5
330
260
100
AcDbEntity
  8
0
 62
     7
100
AcDbLine
 10
1493.454751808454
 20
6.787101521732893
 30
0.0
 11
1507.257391819076
 21
-5.640851365817525
 31
0.0
  0
LINE
  5
2B6
330
260
100
AcDbEntity
  8
0
 62
     7
100
AcDbLine
 10
1477.631577182522
 20
14.55378466715274
 30
0.0
 11
1479.886872782269
 21
-7.997553924337352
 31
0.0
  0
LINE
  5
2B7
330
260
100
AcDbEntity
  8
0
 62
     7
100
AcDbLine
 10
1505.75
 20
-22.50000000000044
 30
0.0
 11
1482.147111889222
 21
-22.50000000000044
 31
0.0
  0
LINE
  5
2B8
330
260
100
AcDbEntity
  8
0
 62
     7
100
AcDbLine
 10
1505.25
 20
-12.50000000000044
 30
0.0
 11
1484.862055200268
 21
-12.50000000000044
 31
0.0
  0
ARC
  5
2B9
330
260
100
AcDbEntity
  8
0
 62
     7
100
AcDbCircle
 10
1484.862055200268
 20
-7.500000000000453
 30
0.0
 40
5.0
100
AcDbArc
 50
185.7110000000001
 51
270.0
  0
ARC
  5
2BA
330
260
100
AcDbEntity
  8
0
 62
     7
100
AcDbCircle
 10
1482.147111889222
 20
-10.50000000000044
 30
0.0
 40
12.0
100
AcDbArc
 50
185.7109999999986
 51
270.0
  0
ARC
  5
2BB
330
260
100
AcDbEntity
  8
0
 62
     7
100
AcDbCircle
 10
1505.75
 20
-10.50000000000044
 30
0.0
 40
12.0
100
AcDbArc
 50
270.0
 51
0.0
  0
ARC
  5
2BC
330
260
100
AcDbEntity
  8
0
 62
     7
100
AcDbCircle
 10
1505.25
 20
-7.870285842249812
 30
0.0
 40
3.0
100
AcDbArc
 50
0.0
 51
48.00000000000117
  0
LINE
  5
2BD
330
260
100
AcDbEntity
  8
0
 62
     7
100
AcDbLine
 10
1508.25
 20
-9.500000000000452
 30
0.0
 11
1508.25
 21
-7.870285842249812
 31
0.0
  0
ARC
  5
2BE
330
260
100
AcDbEntity
  8
0
 62
     7
100
AcDbCircle
 10
1505.25
 20
-9.500000000000452
 30
0.0
 40
3.0
100
AcDbArc
 50
270.0
 51
0.0
  0
ARC
  5
2BF
330
260
100
AcDbEntity
  8
0
 62
     7
100
AcDbCircle
 10
1500.150284093201
 20
-9.500000000000452
 30
0.0
 40
20.0
100
AcDbArc
 50
40.53830655009893
 51
90.0
  0
LINE
  5
2C0
330
260
100
AcDbEntity
  8
0
 62
     4
100
AcDbLine
 10
1495.0
 20
0.0
 30
0.0
 11
1505.0
 21
0.0
 31
0.0
  0
ARC
  5
2C1
330
260
100
AcDbEntity
  8
0
 62
     7
100
AcDbCircle
 10
1442.891822501698
 20
10.20574679527044
 30
0.0
 40
25.0
100
AcDbArc
 50
5.711000000001843
 51
35.35237505803393
  0
ARC
  5
2C2
330
260
100
AcDbEntity
  8
0
 62
     7
100
AcDbCircle
 10
1452.755665092522
 20
12.06601504546823
 30
0.0
 40
25.0
100
AcDbArc
 50
5.711000000001843
 51
35.35237505803261
  0
LINE
  5
2C3
330
260
100
AcDbEntity
  8
0
 62
     7
100
AcDbLine
 10
1500.150284093201
 20
10.49999999999953
 30
0.0
 11
1494.88
 21
10.49999999999953
 31
0.0
  0
ARC
  5
2C4
330
260
100
AcDbEntity
  8
0
 62
     7
100
AcDbCircle
 10
1494.88
 20
8.369999999999436
 30
0.0
 40
2.129999999999999
100
AcDbArc
 50
90.0
 51
227.9999999999908
  0
LINE
  5
2C5
330
260
100
AcDbEntity
  8
0
 62
     4
100
AcDbLine
 10
1500.0
 20
-5.0
 30
0.0
 11
1500.0
 21
5.0
 31
0.0
  0
ARC
  5
2C6
330
260
100
AcDbEntity
  8
0
 62
     7
100
AcDbCircle
 10
1507.75
 20
-3.000437081159816
 30
0.0
 40
10.0
100
AcDbArc
 50
0.0
 51
40.53830655009893
  0
ARC
  5
2C7
330
260
100
AcDbEntity
  8
0
 62
     7
100
AcDbCircle
 10
1292.915423905514
 20
135.1999999999992
 30
0.0
 40
75.0
100
AcDbArc
 50
35.35237505803261
 51
90.0
  0
ARC
  5
2C8
330
260
100
AcDbEntity
  8
0
 62
     7
100
AcDbCircle
 10
1322.48337691142
 20
195.6999999999998
 30
0.0
 40
25.0
100
AcDbArc
 50
35.35237505803261
 51
90.0
  0
ENDBLK
  5
262
330
260
100
AcDbEntity
  8
0
100
AcDbBlockEnd
  0
ENDSEC
  0
SECTION
  2
ENTITIES
  0
INSERT
  5
2C9
330
1F
100
AcDbEntity
  8
0
100
AcDbBlockReference
  2
au18d
 10
944.8556523714639
 20
151.7558905599717
 30
0.0
  0
VIEWPORT
  5
6A
330
1B
100
AcDbEntity
 67
     1
  8
0
100
AcDbViewport
 10
144.2296600341796
 20
98.97533035278321
 30
0.0
 40
348.3547377345459
 41
222.1517806396483
 68
     1
 69
     1
 12
144.2296600341796
 22
98.97533035278321
 13
0.0
 23
0.0
 14
10.0
 24
10.0
 15
10.0
 25
10.0
 16
0.0
 26
0.0
 36
1.0
 17
0.0
 27
0.0
 37
0.0
 42
50.0
 43
0.0
 44
0.0
 45
222.1517806396483
 50
0.0
 51
0.0
 72
   100
 90
    32800
  1

281
     0
 71
     1
 74
     0
110
0.0
120
0.0
130
0.0
111
1.0
121
0.0
131
0.0
112
0.0
122
1.0
132
0.0
 79
     0
146
0.0
  0
VIEWPORT
  5
6C
330
1B
100
AcDbEntity
 67
     1
  8
0
100
AcDbViewport
 10
144.2296578884123
 20
98.97533607482912
 30
0.0
 40
230.7674526214599
 41
158.3605377197264
 68
     2
 69
     2
 12
471.9925402099685
 22
207.0118385025534
 13
0.0
 23
0.0
 14
10.0
 24
10.0
 15
10.0
 25
10.0
 16
0.0
 26
0.0
 36
1.0
 17
0.0
 27
0.0
 37
0.0
 42
50.0
 43
0.0
 44
0.0
 45
537.2024815614428
 50
0.0
 51
0.0
 72
   100
 90
    32864
  1

281
     0
 71
     1
 74
     0
110
330.2484756222961
120
239.5669321729576
130
0.0
111
1.0
121
0.0
131
0.0
112
0.0
122
1.0
132
0.0
 79
     0
146
0.0
  0
ENDSEC
  0
SECTION
  2
OBJECTS
  0
DICTIONARY
  5
C
330
0
100
AcDbDictionary
281
     1
  3
ACAD_GROUP
350
D
  3
ACAD_LAYOUT
350
1A
  3
ACAD_MLINESTYLE
350
17
  3
ACAD_PLOTSETTINGS
350
19
  3
ACAD_PLOTSTYLENAME
350
E
  3
AcDbVariableDictionary
350
44
  0
DICTIONARY
  5
2B
330
2
100
AcDbDictionary
280
     1
281
     1
  3
ACAD_LAYERFILTERS
360
2C
  0
DICTIONARY
  5
D
102
{ACAD_REACTORS
330
C
102
}
330
C
100
AcDbDictionary
281
     1
  0
DICTIONARY
  5
1A
102
{ACAD_REACTORS
330
C
102
}
330
C
100
AcDbDictionary
281
     1
  3
Layout1
350
1E
  3
Model
350
22
  0
DICTIONARY
  5
17
102
{ACAD_REACTORS
330
C
102
}
330
C
100
AcDbDictionary
281
     1
  3
Standard
350
18
  0
DICTIONARY
  5
19
102
{ACAD_REACTORS
330
C
102
}
330
C
100
AcDbDictionary
281
     1
  0
ACDBDICTIONARYWDFLT
  5
E
102
{ACAD_REACTORS
330
C
102
}
330
C
100
AcDbDictionary
281
     1
  3
Normal
350
F
100
AcDbDictionaryWithDefault
340
F
  0
DICTIONARY
  5
44
102
{ACAD_REACTORS
330
C
102
}
330
C
100
AcDbDictionary
281
     1
  3
DIMASSOC
350
46
  3
HIDETEXT
350
45
  0
DICTIONARY
  5
2C
102
{ACAD_REACTORS
330
2B
102
}
330
2B
100
AcDbDictionary
280
     1
281
     1
  3
GEO
360
2D
  3
RAK
360
2E
  3
RAK&GEO
360
2F
  0
LAYOUT
  5
1E
102
{ACAD_REACTORS
330
1A
102
}
330
1A
100
AcDbPlotSettings
  1

  2
\\AOBSRV1\FIN9
  4
A4
  6

 40
6.01133346557617
 41
4.233341693878172
 42
6.011322021484375
 43
4.23333740234375
 44
209.9733276367186
 45
296.9259948730469
 46
0.0
 47
0.0
 48
0.0
 49
0.0
140
0.0
141
0.0
142
1.0
143
1.0
 70
   688
 72
     1
 73
     1
 74
     5
  7

 75
    16
147
1.0
148
0.0
149
0.0
100
AcDbLayout
  1
Layout1
 70
     1
 71
     1
 10
-4.23333740234375
 20
-6.01133346557617
 11
292.6926574707031
 21
203.9619941711424
 12
0.0
 22
0.0
 32
0.0
 14
28.8459315776825
 24
19.79506721496582
 34
0.0
 15
259.6133841991424
 25
178.1556049346923
 35
0.0
146
0.0
 13
0.0
 23
0.0
 33
0.0
 16
1.0
 26
0.0
 36
0.0
 17
0.0
 27
1.0
 37
0.0
 76
     0
330
1B
331
6A
  0
LAYOUT
  5
22
102
{ACAD_REACTORS
330
1A
102
}
330
1A
100
AcDbPlotSettings
  1

  2
\\AOBSRV1\FIN9
  4

  6

 40
0.0
 41
0.0
 42
0.0
 43
0.0
 44
0.0
 45
0.0
 46
0.0
 47
0.0
 48
0.0
 49
0.0
140
0.0
141
0.0
142
1.0
143
1.0
 70
  1712
 72
     0
 73
     0
 74
     0
  7

 75
     0
147
1.0
148
0.0
149
0.0
100
AcDbLayout
  1
Model
 70
     1
 71
     0
 10
0.0
 20
0.0
 11
12.0
 21
9.0
 12
0.0
 22
0.0
 32
0.0
 14
0.0
 24
0.0
 34
0.0
 15
0.0
 25
0.0
 35
0.0
146
0.0
 13
0.0
 23
0.0
 33
0.0
 16
1.0
 26
0.0
 36
0.0
 17
0.0
 27
1.0
 37
0.0
 76
     0
330
1F
  0
MLINESTYLE
  5
18
102
{ACAD_REACTORS
330
17
102
}
330
17
100
AcDbMlineStyle
  2
STANDARD
 70
     0
  3

 62
   256
 51
90.0
 52
90.0
 71
     2
 49
0.5
 62
   256
  6
BYLAYER
 49
-0.5
 62
   256
  6
BYLAYER
  0
ACDBPLACEHOLDER
  5
F
102
{ACAD_REACTORS
330
E
102
}
330
E
  0
DICTIONARYVAR
  5
46
102
{ACAD_REACTORS
330
44
102
}
330
44
100
DictionaryVariables
280
     0
  1
2
  0
DICTIONARYVAR
  5
45
102
{ACAD_REACTORS
330
44
102
}
330
44
100
DictionaryVariables
280
     0
  1
1
  0
XRECORD
  5
2D
102
{ACAD_REACTORS
330
2C
102
}
330
2C
100
AcDbXrecord
280
     1
  1
GEO
  1
GEO-*
  1
*
  1
*
 70
     0
  1
*
  1
*
  0
XRECORD
  5
2E
102
{ACAD_REACTORS
330
2C
102
}
330
2C
100
AcDbXrecord
280
     1
  1
RAK
  1
RAK-*
  1
*
  1
*
 70
     0
  1
*
  1
*
  0
XRECORD
  5
2F
102
{ACAD_REACTORS
330
2C
102
}
330
2C
100
AcDbXrecord
280
     1
  1
RAK&GEO
  1
RAK-*,GEO-*
  1
*
  1
*
 70
     0
  1
*
  1
*
  0
ENDSEC
  0
EOF
