  0
SECTION
  2
HEADER
  9
$ACADVER
  1
AC1015
  9
$ACADMAINTVER
 70
    14
  9
$DWGCODEPAGE
  3
ANSI_1252
  9
$INSBASE
 10
0.0
 20
0.0
 30
0.0
  9
$EXTMIN
 10
912.2612440597018
 20
-916.772253318328
 30
-0.0000000003672348
  9
$EXTMAX
 10
2412.664009615697
 20
-640.3643052041116
 30
-0.0000000003672348
  9
$LIMMIN
 10
0.0
 20
0.0
  9
$LIMMAX
 10
420.0
 20
297.0
  9
$ORTHOMODE
 70
     0
  9
$REGENMODE
 70
     1
  9
$FILLMODE
 70
     1
  9
$QTEXTMODE
 70
     0
  9
$MIRRTEXT
 70
     1
  9
$LTSCALE
 40
1.0
  9
$ATTMODE
 70
     1
  9
$TEXTSIZE
 40
2.5
  9
$TRACEWID
 40
1.0
  9
$TEXTSTYLE
  7
Standard
  9
$CLAYER
  8
PAZ4470
  9
$CELTYPE
  6
ByLayer
  9
$CECOLOR
 62
   256
  9
$CELTSCALE
 40
1.0
  9
$DISPSILH
 70
     0
  9
$DIMSCALE
 40
1.0
  9
$DIMASZ
 40
2.5
  9
$DIMEXO
 40
0.625
  9
$DIMDLI
 40
3.75
  9
$DIMRND
 40
0.0
  9
$DIMDLE
 40
0.0
  9
$DIMEXE
 40
1.25
  9
$DIMTP
 40
0.0
  9
$DIMTM
 40
0.0
  9
$DIMTXT
 40
2.5
  9
$DIMCEN
 40
2.5
  9
$DIMTSZ
 40
0.0
  9
$DIMTOL
 70
     0
  9
$DIMLIM
 70
     0
  9
$DIMTIH
 70
     0
  9
$DIMTOH
 70
     0
  9
$DIMSE1
 70
     0
  9
$DIMSE2
 70
     0
  9
$DIMTAD
 70
     1
  9
$DIMZIN
 70
     8
  9
$DIMBLK
  1

  9
$DIMASO
 70
     1
  9
$DIMSHO
 70
     1
  9
$DIMPOST
  1

  9
$DIMAPOST
  1

  9
$DIMALT
 70
     0
  9
$DIMALTD
 70
     3
  9
$DIMALTF
 40
0.03937007874016
  9
$DIMLFAC
 40
1.0
  9
$DIMTOFL
 70
     1
  9
$DIMTVP
 40
0.0
  9
$DIMTIX
 70
     0
  9
$DIMSOXD
 70
     0
  9
$DIMSAH
 70
     0
  9
$DIMBLK1
  1

  9
$DIMBLK2
  1

  9
$DIMSTYLE
  2
ISO-25
  9
$DIMCLRD
 70
     0
  9
$DIMCLRE
 70
     0
  9
$DIMCLRT
 70
     0
  9
$DIMTFAC
 40
1.0
  9
$DIMGAP
 40
0.625
  9
$DIMJUST
 70
     0
  9
$DIMSD1
 70
     0
  9
$DIMSD2
 70
     0
  9
$DIMTOLJ
 70
     0
  9
$DIMTZIN
 70
     8
  9
$DIMALTZ
 70
     0
  9
$DIMALTTZ
 70
     0
  9
$DIMUPT
 70
     0
  9
$DIMDEC
 70
     2
  9
$DIMTDEC
 70
     2
  9
$DIMALTU
 70
     2
  9
$DIMALTTD
 70
     3
  9
$DIMTXSTY
  7
Standard
  9
$DIMAUNIT
 70
     0
  9
$DIMADEC
 70
     0
  9
$DIMALTRND
 40
0.0
  9
$DIMAZIN
 70
     0
  9
$DIMDSEP
 70
    44
  9
$DIMATFIT
 70
     3
  9
$DIMFRAC
 70
     0
  9
$DIMLDRBLK
  1

  9
$DIMLUNIT
 70
     2
  9
$DIMLWD
 70
    -2
  9
$DIMLWE
 70
    -2
  9
$DIMTMOVE
 70
     0
  9
$LUNITS
 70
     2
  9
$LUPREC
 70
     4
  9
$SKETCHINC
 40
1.0
  9
$FILLETRAD
 40
10.0
  9
$AUNITS
 70
     0
  9
$AUPREC
 70
     0
  9
$MENU
  1
.
  9
$ELEVATION
 40
0.0
  9
$PELEVATION
 40
0.0
  9
$THICKNESS
 40
0.0
  9
$LIMCHECK
 70
     0
  9
$CHAMFERA
 40
10.0
  9
$CHAMFERB
 40
10.0
  9
$CHAMFERC
 40
20.0
  9
$CHAMFERD
 40
0.0
  9
$SKPOLY
 70
     0
  9
$TDCREATE
 40
2452984.401453715
  9
$TDUCREATE
 40
2452984.359787048
  9
$TDUPDATE
 40
2452989.717776053
  9
$TDUUPDATE
 40
2452989.676109386
  9
$TDINDWG
 40
0.0436256019
  9
$TDUSRTIMER
 40
0.0436254167
  9
$USRTIMER
 70
     1
  9
$ANGBASE
 50
0.0
  9
$ANGDIR
 70
     0
  9
$PDMODE
 70
     0
  9
$PDSIZE
 40
0.0
  9
$PLINEWID
 40
0.0
  9
$SPLFRAME
 70
     0
  9
$SPLINETYPE
 70
     6
  9
$SPLINESEGS
 70
     8
  9
$HANDSEED
  5
A89
  9
$SURFTAB1
 70
     6
  9
$SURFTAB2
 70
     6
  9
$SURFTYPE
 70
     6
  9
$SURFU
 70
     6
  9
$SURFV
 70
     6
  9
$UCSBASE
  2

  9
$UCSNAME
  2

  9
$UCSORG
 10
929.5331073055107
 20
-896.1332193985191
 30
-0.0000000003672348
  9
$UCSXDIR
 10
1.0
 20
0.0
 30
0.0
  9
$UCSYDIR
 10
0.0
 20
1.0
 30
0.0
  9
$UCSORTHOREF
  2

  9
$UCSORTHOVIEW
 70
     0
  9
$UCSORGTOP
 10
0.0
 20
0.0
 30
0.0
  9
$UCSORGBOTTOM
 10
0.0
 20
0.0
 30
0.0
  9
$UCSORGLEFT
 10
0.0
 20
0.0
 30
0.0
  9
$UCSORGRIGHT
 10
0.0
 20
0.0
 30
0.0
  9
$UCSORGFRONT
 10
0.0
 20
0.0
 30
0.0
  9
$UCSORGBACK
 10
0.0
 20
0.0
 30
0.0
  9
$PUCSBASE
  2

  9
$PUCSNAME
  2

  9
$PUCSORG
 10
0.0
 20
0.0
 30
0.0
  9
$PUCSXDIR
 10
1.0
 20
0.0
 30
0.0
  9
$PUCSYDIR
 10
0.0
 20
1.0
 30
0.0
  9
$PUCSORTHOREF
  2

  9
$PUCSORTHOVIEW
 70
     0
  9
$PUCSORGTOP
 10
0.0
 20
0.0
 30
0.0
  9
$PUCSORGBOTTOM
 10
0.0
 20
0.0
 30
0.0
  9
$PUCSORGLEFT
 10
0.0
 20
0.0
 30
0.0
  9
$PUCSORGRIGHT
 10
0.0
 20
0.0
 30
0.0
  9
$PUCSORGFRONT
 10
0.0
 20
0.0
 30
0.0
  9
$PUCSORGBACK
 10
0.0
 20
0.0
 30
0.0
  9
$USERI1
 70
     0
  9
$USERI2
 70
     0
  9
$USERI3
 70
     0
  9
$USERI4
 70
     0
  9
$USERI5
 70
     0
  9
$USERR1
 40
0.0
  9
$USERR2
 40
0.0
  9
$USERR3
 40
0.0
  9
$USERR4
 40
0.0
  9
$USERR5
 40
0.0
  9
$WORLDVIEW
 70
     1
  9
$SHADEDGE
 70
     3
  9
$SHADEDIF
 70
    70
  9
$TILEMODE
 70
     1
  9
$MAXACTVP
 70
    64
  9
$PINSBASE
 10
0.0
 20
0.0
 30
0.0
  9
$PLIMCHECK
 70
     0
  9
$PEXTMIN
 10
28.8459315776825
 20
19.79506721496582
 30
0.0
  9
$PEXTMAX
 10
259.6133841991424
 20
178.1556049346923
 30
0.0
  9
$PLIMMIN
 10
-4.23333740234375
 20
-6.011333465576171
  9
$PLIMMAX
 10
292.6926574707031
 20
203.9619941711425
  9
$UNITMODE
 70
     0
  9
$VISRETAIN
 70
     1
  9
$PLINEGEN
 70
     0
  9
$PSLTSCALE
 70
     1
  9
$TREEDEPTH
 70
  3020
  9
$CMLSTYLE
  2
Standard
  9
$CMLJUST
 70
     0
  9
$CMLSCALE
 40
20.0
  9
$PROXYGRAPHICS
 70
     1
  9
$MEASUREMENT
 70
     1
  9
$CELWEIGHT
370
    -1
  9
$ENDCAPS
280
     0
  9
$JOINSTYLE
280
     0
  9
$LWDISPLAY
290
     0
  9
$INSUNITS
 70
     4
  9
$HYPERLINKBASE
  1

  9
$STYLESHEET
  1

  9
$XEDIT
290
     1
  9
$CEPSNTYPE
380
     0
  9
$PSTYLEMODE
290
     1
  9
$FINGERPRINTGUID
  2
{1F0C9108-7A24-43FE-92C0-F61D6143634A}
  9
$VERSIONGUID
  2
{0AA2CD21-EDF4-41C5-8D8C-194CE8C62E75}
  9
$EXTNAMES
290
     1
  9
$PSVPSCALE
 40
0.0
  9
$OLESTARTUP
290
     0
  0
ENDSEC
  0
SECTION
  2
CLASSES
  0
CLASS
  1
ACDBDICTIONARYWDFLT
  2
AcDbDictionaryWithDefault
  3
AutoCAD 2000
 90
        0
280
     0
281
     0
  0
CLASS
  1
ACDBPLACEHOLDER
  2
AcDbPlaceHolder
  3
AutoCAD 2000
 90
        0
280
     0
281
     0
  0
CLASS
  1
LAYOUT
  2
AcDbLayout
  3
AutoCAD 2000
 90
        0
280
     0
281
     0
  0
CLASS
  1
DICTIONARYVAR
  2
AcDbDictionaryVar
  3
AutoCAD 2000
 90
        0
280
     0
281
     0
  0
ENDSEC
  0
SECTION
  2
TABLES
  0
TABLE
  2
VPORT
  5
8
330
0
100
AcDbSymbolTable
 70
     2
  0
VPORT
  5
A88
330
8
100
AcDbSymbolTableRecord
100
AcDbViewportTableRecord
  2
*Active
 70
     0
 10
0.0
 20
0.0
 11
1.0
 21
1.0
 12
1662.461574541761
 22
-760.5017913326531
 13
0.0
 23
0.0
 14
10.0
 24
10.0
 15
10.0
 25
10.0
 16
0.0
 26
0.0
 36
1.0
 17
0.0
 27
0.0
 37
0.0
 40
1046.775524053817
 41
1.440860215053763
 42
50.0
 43
0.0
 44
0.0
 50
0.0
 51
0.0
 71
     0
 72
   100
 73
     1
 74
     3
 75
     0
 76
     0
 77
     0
 78
     0
281
     0
 65
     1
110
929.5331073055107
120
-896.1332193985191
130
-0.0000000003672348
111
1.0
121
0.0
131
0.0
112
0.0
122
1.0
132
0.0
 79
     0
146
0.0
  0
ENDTAB
  0
TABLE
  2
LTYPE
  5
5
330
0
100
AcDbSymbolTable
 70
     1
  0
LTYPE
  5
14
330
5
100
AcDbSymbolTableRecord
100
AcDbLinetypeTableRecord
  2
ByBlock
 70
     0
  3

 72
    65
 73
     0
 40
0.0
  0
LTYPE
  5
15
330
5
100
AcDbSymbolTableRecord
100
AcDbLinetypeTableRecord
  2
ByLayer
 70
     0
  3

 72
    65
 73
     0
 40
0.0
  0
LTYPE
  5
16
330
5
100
AcDbSymbolTableRecord
100
AcDbLinetypeTableRecord
  2
Continuous
 70
     0
  3
Solid line
 72
    65
 73
     0
 40
0.0
  0
ENDTAB
  0
TABLE
  2
LAYER
  5
2
102
{ACAD_XDICTIONARY
360
2B
102
}
330
0
100
AcDbSymbolTable
 70
     2
  0
LAYER
  5
10
330
2
100
AcDbSymbolTableRecord
100
AcDbLayerTableRecord
  2
0
 70
     0
 62
     7
  6
Continuous
370
    -3
390
F
  0
LAYER
  5
B3
330
2
100
AcDbSymbolTableRecord
100
AcDbLayerTableRecord
  2
PAZ4470
 70
     0
 62
     7
  6
Continuous
370
    -3
390
F
  0
ENDTAB
  0
TABLE
  2
STYLE
  5
3
330
0
100
AcDbSymbolTable
 70
     1
  0
STYLE
  5
11
330
3
100
AcDbSymbolTableRecord
100
AcDbTextStyleTableRecord
  2
Standard
 70
     0
 40
0.0
 41
1.0
 50
0.0
 71
     0
 42
2.5
  3
txt
  4

  0
ENDTAB
  0
TABLE
  2
VIEW
  5
6
330
0
100
AcDbSymbolTable
 70
     0
  0
ENDTAB
  0
TABLE
  2
UCS
  5
7
330
0
100
AcDbSymbolTable
 70
     0
  0
ENDTAB
  0
TABLE
  2
APPID
  5
9
330
0
100
AcDbSymbolTable
 70
     1
  0
APPID
  5
12
330
9
100
AcDbSymbolTableRecord
100
AcDbRegAppTableRecord
  2
ACAD
 70
     0
  0
ENDTAB
  0
TABLE
  2
DIMSTYLE
  5
A
330
0
100
AcDbSymbolTable
 70
     1
100
AcDbDimStyleTable
 71
     0
  0
DIMSTYLE
105
27
330
A
100
AcDbSymbolTableRecord
100
AcDbDimStyleTableRecord
  2
ISO-25
 70
     0
 41
2.5
 42
0.625
 43
3.75
 44
1.25
 73
     0
 74
     0
 77
     1
 78
     8
140
2.5
141
2.5
143
0.03937007874016
147
0.625
171
     3
172
     1
271
     2
272
     2
274
     3
278
    44
283
     0
284
     8
340
11
  0
ENDTAB
  0
TABLE
  2
BLOCK_RECORD
  5
1
330
0
100
AcDbSymbolTable
 70
     1
  0
BLOCK_RECORD
  5
1F
330
1
100
AcDbSymbolTableRecord
100
AcDbBlockTableRecord
  2
*Model_Space
340
22
  0
BLOCK_RECORD
  5
1B
330
1
100
AcDbSymbolTableRecord
100
AcDbBlockTableRecord
  2
*Paper_Space
340
1E
  0
BLOCK_RECORD
  5
A2E
330
1
100
AcDbSymbolTableRecord
100
AcDbBlockTableRecord
  2
paz4470
340
0
310
2800000020000000200000000100080000000000000400000000000000000000000000000000000000000000000080000080000000808000800000008000800080800000C0C0C000C0DCC000F0CAA6000020400000206000002080000020A0000020C0000020E00000400000004020000040400000406000004080000040A0
310
000040C0000040E00000600000006020000060400000606000006080000060A0000060C0000060E00000800000008020000080400000806000008080000080A0000080C0000080E00000A0000000A0200000A0400000A0600000A0800000A0A00000A0C00000A0E00000C0000000C0200000C0400000C0600000C0800000C0
310
A00000C0C00000C0E00000E0000000E0200000E0400000E0600000E0800000E0A00000E0C00000E0E00040000000400020004000400040006000400080004000A0004000C0004000E00040200000402020004020400040206000402080004020A0004020C0004020E000404000004040200040404000404060004040800040
310
40A0004040C0004040E00040600000406020004060400040606000406080004060A0004060C0004060E00040800000408020004080400040806000408080004080A0004080C0004080E00040A0000040A0200040A0400040A0600040A0800040A0A00040A0C00040A0E00040C0000040C0200040C0400040C0600040C08000
310
40C0A00040C0C00040C0E00040E0000040E0200040E0400040E0600040E0800040E0A00040E0C00040E0E00080000000800020008000400080006000800080008000A0008000C0008000E00080200000802020008020400080206000802080008020A0008020C0008020E00080400000804020008040400080406000804080
310
008040A0008040C0008040E00080600000806020008060400080606000806080008060A0008060C0008060E00080800000808020008080400080806000808080008080A0008080C0008080E00080A0000080A0200080A0400080A0600080A0800080A0A00080A0C00080A0E00080C0000080C0200080C0400080C0600080C0
310
800080C0A00080C0C00080C0E00080E0000080E0200080E0400080E0600080E0800080E0A00080E0C00080E0E000C0000000C0002000C0004000C0006000C0008000C000A000C000C000C000E000C0200000C0202000C0204000C0206000C0208000C020A000C020C000C020E000C0400000C0402000C0404000C0406000C0
310
408000C040A000C040C000C040E000C0600000C0602000C0604000C0606000C0608000C060A000C060C000C060E000C0800000C0802000C0804000C0806000C0808000C080A000C080C000C080E000C0A00000C0A02000C0A04000C0A06000C0A08000C0A0A000C0A0C000C0A0E000C0C00000C0C02000C0C04000C0C06000
310
C0C08000C0C0A000F0FBFF00A4A0A000808080000000FF0000FF000000FFFF00FF000000FF00FF00FFFF0000FFFFFF0000000000000000000000000000000000000000000000000000000000000000000000000000000000000000000000000000000000000000000000000000000000000000000000000000000000000000
310
00000000000000000000000000000000000000000000000000000000000000000000000000000000000000000000000000000000000000000000000000000000000000000000000000000000000000000000000000000000000000000000000000000000000000000000000000000000000000000000000000000000000000
310
00000000000000000000000000000000000000000000000000000000000000000000000000000000000000000000000000000000000000000000000000000000000000000000000000000000000000000000000000000000000000000000000000000000000000000000000000000000000000000000000000000000000000
310
000000000000000000000000000000000000000000000000000000000000000000000000000000000000000000000000000000000000000000000000000000000000000000000000000000000000000000000000FEFFFFFFFFFF000000000000000000000000000000000000FFFFFFFFFFFF0000000000000000FF00000000
310
000000000000000000000000FF00000000FF00000000000000000000FF0000000000000000000000000000FF0000000000000000000000000000000000FF000000000000000000000000FF00000000000000000000000000000000000000FF00000000FFFF00000000FF000000000000000000000000000000000000000000
310
FFFFFFFFFFFFFFFFFFFF000000000000000000000000000000000000000000000000000000000000000000000000000000000000000000000000000000000000000000000000000000000000000000000000000000000000000000000000000000000000000000000000000000000000000000000000000000000000000000
310
00000000000000000000000000000000000000000000000000000000000000000000000000000000000000000000000000000000000000000000000000000000000000000000000000000000000000000000000000000000000000000000000000000000000000000000000000000000000000000000000000000000000000
310
00000000000000000000000000000000000000000000000000000000000000000000000000000000000000000000000000000000000000000000000000000000000000000000000000000000000000000000000000000000000000000000000000000000000000000000000000000000000000000000000000000000000000
310
0000000000000000000000000000000000000000000000000000000000000000000000000000000000000000000000000000000000000000
102
{BLKREFS
331
A75
102
}
1001
ACAD
1000
DesignCenter Data
1002
{
1070
     1
1070
     4
1002
}
  0
ENDTAB
  0
ENDSEC
  0
SECTION
  2
BLOCKS
  0
BLOCK
  5
20
330
1F
100
AcDbEntity
  8
0
100
AcDbBlockBegin
  2
*Model_Space
 70
     0
 10
0.0
 20
0.0
 30
0.0
  3
*Model_Space
  1

  0
ENDBLK
  5
21
330
1F
100
AcDbEntity
  8
0
100
AcDbBlockEnd
  0
BLOCK
  5
1C
330
1B
100
AcDbEntity
 67
     1
  8
0
100
AcDbBlockBegin
  2
*Paper_Space
 70
     0
 10
0.0
 20
0.0
 30
0.0
  3
*Paper_Space
  1

  0
ENDBLK
  5
1D
330
1B
100
AcDbEntity
 67
     1
  8
0
100
AcDbBlockEnd
  0
BLOCK
  5
A2F
330
A2E
100
AcDbEntity
  8
0
100
AcDbBlockBegin
  2
paz4470
 70
     0
 10
0.0
 20
0.0
 30
0.0
  3
paz4470
  1

  0
LINE
  5
A31
330
A2E
100
AcDbEntity
  8
0
  6
Continuous
 62
     7
100
AcDbLine
 10
516.7056165324902
 20
252.8798802746005
 30
0.0
 11
695.6132392750442
 21
252.8798802746005
 31
0.0
  0
LINE
  5
A32
330
A2E
100
AcDbEntity
  8
0
  6
Continuous
 62
     7
100
AcDbLine
 10
695.6132392751023
 20
245.8798802745986
 30
0.0
 11
516.7056165324902
 21
245.8798802745986
 31
0.0
  0
LINE
  5
A33
330
A2E
100
AcDbEntity
  8
0
  6
Continuous
 62
     7
100
AcDbLine
 10
247.7510100423824
 20
-4.892103270292864
 30
0.0
 11
497.6136897634569
 21
244.9717196895344
 31
0.0
  0
LINE
  5
A34
330
A2E
100
AcDbEntity
  8
0
  6
Continuous
 62
     7
100
AcDbLine
 10
502.5634485553892
 20
240.0219835448988
 30
0.0
 11
274.7925071692006
 21
12.25
 31
0.0
  0
LINE
  5
A35
330
A2E
100
AcDbEntity
  8
0
  6
Continuous
 62
     7
100
AcDbLine
 10
-0.000010257208487
 20
-10.74999999998544
 30
0.0
 11
233.6088420652959
 21
-10.74999999999999
 31
0.0
  0
LINE
  5
A36
330
A2E
100
AcDbEntity
  8
0
  6
Continuous
 62
     7
100
AcDbLine
 10
233.6088420652959
 20
-17.74999999999818
 30
0.0
 11
-0.000010257208487
 21
-17.74999999998544
 31
0.0
  0
ARC
  5
A37
330
A2E
100
AcDbEntity
  8
0
  6
Continuous
 62
     7
100
AcDbCircle
 10
-0.000010257208487
 20
-3.800510257200585
 30
0.0
 40
13.9494897427847
100
AcDbArc
 50
74.9999999999724
 51
180.0
  0
ARC
  5
A38
330
A2E
100
AcDbEntity
  8
0
  6
Continuous
 62
     7
100
AcDbCircle
 10
-0.000010257208487
 20
-3.800510257200585
 30
0.0
 40
13.9494897427853
100
AcDbArc
 50
180.0
 51
270.0
  0
ARC
  5
A39
330
A2E
100
AcDbEntity
  8
0
  6
Continuous
 62
     7
100
AcDbCircle
 10
-0.000010257208487
 20
-3.800510257200585
 30
0.0
 40
6.94948974278415
100
AcDbArc
 50
75.0000000000324
 51
270.0
  0
LINE
  5
A3A
330
A2E
100
AcDbEntity
  8
0
  6
Continuous
 62
     4
100
AcDbLine
 10
0.0
 20
10.0
 30
0.0
 11
0.0
 21
-10.0
 31
0.0
  0
LINE
  5
A3B
330
A2E
100
AcDbEntity
  8
0
  6
Continuous
 62
     7
100
AcDbLine
 10
17.91238188519491
 20
-1.40548006949939
 30
0.0
 11
1.79865004196472
 21
2.912181364885327
 31
0.0
  0
LINE
  5
A3C
330
A2E
100
AcDbEntity
  8
0
  6
Continuous
 62
     7
100
AcDbLine
 10
3.610383357692626
 20
9.673662148907169
 30
0.0
 11
19.72411520089372
 21
5.356000714502442
 31
0.0
  0
LINE
  5
A3D
330
A2E
100
AcDbEntity
  8
0
  6
Continuous
 62
     4
100
AcDbLine
 10
10.0
 20
0.0
 30
0.0
 11
-10.0
 21
0.0
 31
0.0
  0
LINE
  5
A3E
330
A2E
100
AcDbEntity
  8
0
  6
Continuous
 62
     7
100
AcDbLine
 10
19.72411520089372
 20
5.356000714502442
 30
0.0
 11
17.91238188519491
 21
-1.40548006949939
 31
0.0
  0
LINE
  5
A3F
330
A2E
100
AcDbEntity
  8
0
  6
Continuous
 62
     7
100
AcDbLine
 10
274.7925071692006
 20
12.25
 30
0.0
 11
252.7007688343292
 21
-9.84183941493211
 31
0.0
  0
ARC
  5
A40
330
A2E
100
AcDbEntity
  8
0
  6
Continuous
 62
     7
100
AcDbCircle
 10
233.6088420652959
 20
9.25
 30
0.0
 40
26.99999999999739
100
AcDbArc
 50
270.0
 51
315.0001310772046
  0
ARC
  5
A41
330
A2E
100
AcDbEntity
  8
0
  6
Continuous
 62
     7
100
AcDbCircle
 10
233.6088420652959
 20
9.25
 30
0.0
 40
20.0
100
AcDbArc
 50
270.0
 51
315.0001310773106
  0
ARC
  5
A42
330
A2E
100
AcDbEntity
  8
0
  6
Continuous
 62
     7
100
AcDbCircle
 10
516.7056165324902
 20
225.8798802745987
 30
0.0
 40
27.0000000000022
100
AcDbArc
 50
90.0
 51
135.0001310772
  0
ARC
  5
A43
330
A2E
100
AcDbEntity
  8
0
  6
Continuous
 62
     7
100
AcDbCircle
 10
516.7056165324902
 20
225.8798802745987
 30
0.0
 40
20.0
100
AcDbArc
 50
90.0
 51
135.0001310773244
  0
LINE
  5
A44
330
A2E
100
AcDbEntity
  8
0
  6
Continuous
 62
     7
100
AcDbLine
 10
972.7510100423824
 20
240.0219835448915
 30
0.0
 11
1222.613689763456
 21
-9.841839414935748
 31
0.0
  0
LINE
  5
A45
330
A2E
100
AcDbEntity
  8
0
  6
Continuous
 62
     7
100
AcDbLine
 10
1227.563448555389
 20
-4.89210327030014
 30
0.0
 11
999.7925071692007
 21
222.8798802745986
 31
0.0
  0
LINE
  5
A46
330
A2E
100
AcDbEntity
  8
0
  6
Continuous
 62
     7
100
AcDbLine
 10
1241.70561653249
 20
-17.75000000000181
 30
0.0
 11
1420.613239275044
 21
-17.75000000000181
 31
0.0
  0
LINE
  5
A47
330
A2E
100
AcDbEntity
  8
0
  6
Continuous
 62
     7
100
AcDbLine
 10
1420.613239275102
 20
-10.74999999999999
 30
0.0
 11
1241.70561653249
 21
-10.74999999999999
 31
0.0
  0
ARC
  5
A48
330
A2E
100
AcDbEntity
  8
0
  6
Continuous
 62
     7
100
AcDbCircle
 10
1241.70561653249
 20
9.25
 30
0.0
 40
27.0000000000022
100
AcDbArc
 50
224.9998689227999
 51
270.0
  0
ARC
  5
A49
330
A2E
100
AcDbEntity
  8
0
  6
Continuous
 62
     7
100
AcDbCircle
 10
1241.70561653249
 20
9.25
 30
0.0
 40
20.0
100
AcDbArc
 50
224.9998689226756
 51
270.0
  0
ARC
  5
A4A
330
A2E
100
AcDbEntity
  8
0
  6
Continuous
 62
     7
100
AcDbCircle
 10
1465.859049321588
 20
3.800510257198766
 30
0.0
 40
13.9494897427835
100
AcDbArc
 50
0.0
 51
90.0
  0
ARC
  5
A4B
330
A2E
100
AcDbEntity
  8
0
  6
Continuous
 62
     7
100
AcDbCircle
 10
1447.579338073803
 20
-0.000000000001819
 30
0.0
 40
17.75
100
AcDbArc
 50
90.00000000004559
 51
165.2500000002043
  0
LINE
  5
A4C
330
A2E
100
AcDbEntity
  8
0
  6
Continuous
 62
     7
100
AcDbLine
 10
1447.579338073803
 20
10.74999999999999
 30
0.0
 11
1465.859049321588
 21
10.74999999998363
 31
0.0
  0
LINE
  5
A4D
330
A2E
100
AcDbEntity
  8
0
  6
Continuous
 62
     7
100
AcDbLine
 10
1464.060389022372
 20
-2.912181364876232
 30
0.0
 11
1447.9466571792
 21
1.405480069599434
 31
0.0
  0
LINE
  5
A4E
330
A2E
100
AcDbEntity
  8
0
  6
Continuous
 62
     7
100
AcDbLine
 10
1446.134923863501
 20
-5.356000714402398
 30
0.0
 11
1462.248655706687
 21
-9.673662148907169
 31
0.0
  0
LINE
  5
A4F
330
A2E
100
AcDbEntity
  8
0
  6
Continuous
 62
     7
100
AcDbLine
 10
1465.859049321588
 20
17.74999999998181
 30
0.0
 11
1447.579338073788
 21
17.74999999999818
 31
0.0
  0
LINE
  5
A50
330
A2E
100
AcDbEntity
  8
0
  6
Continuous
 62
     4
100
AcDbLine
 10
1440.0
 20
0.0
 30
0.0
 11
1460.0
 21
0.0
 31
0.0
  0
LINE
  5
A51
330
A2E
100
AcDbEntity
  8
0
  6
Continuous
 62
     7
100
AcDbLine
 10
1434.635405389301
 20
-6.941728248986692
 30
0.0
 11
1437.18359423046
 21
2.736970943213236
 31
0.0
  0
LINE
  5
A52
330
A2E
100
AcDbEntity
  8
0
  6
Continuous
 62
     7
100
AcDbLine
 10
1447.9466571792
 20
1.405480069599434
 30
0.0
 11
1446.134923863501
 21
-5.356000714402398
 31
0.0
  0
LINE
  5
A53
330
A2E
100
AcDbEntity
  8
0
  6
Continuous
 62
     7
100
AcDbLine
 10
1430.414272658061
 20
4.519184580585715
 30
0.0
 11
1427.86608381696
 21
-5.159514611515987
 31
0.0
  0
LINE
  5
A54
330
A2E
100
AcDbEntity
  8
0
  6
Continuous
 62
     4
100
AcDbLine
 10
1450.0
 20
-10.0
 30
0.0
 11
1450.0
 21
10.0
 31
0.0
  0
ARC
  5
A55
330
A2E
100
AcDbEntity
  8
0
  6
Continuous
 62
     7
100
AcDbCircle
 10
1420.613239275044
 20
-3.250000000001818
 30
0.0
 40
14.5
100
AcDbArc
 50
270.0
 51
345.2499999999878
  0
ARC
  5
A56
330
A2E
100
AcDbEntity
  8
0
  6
Continuous
 62
     7
100
AcDbCircle
 10
1420.613239275102
 20
-3.25
 30
0.0
 40
7.5
100
AcDbArc
 50
270.0
 51
345.2500000001963
  0
ARC
  5
A57
330
A2E
100
AcDbEntity
  8
0
  6
Continuous
 62
     7
100
AcDbCircle
 10
1447.579338073788
 20
0.0
 30
0.0
 40
10.74999999999999
100
AcDbArc
 50
89.99999999992184
 51
165.2499999999878
  0
ARC
  5
A58
330
A2E
100
AcDbEntity
  8
0
  6
Continuous
 62
     7
100
AcDbCircle
 10
1465.859049321588
 20
3.800510257198766
 30
0.0
 40
6.94948974278486
100
AcDbArc
 50
254.999999999661
 51
90.0
  0
ARC
  5
A59
330
A2E
100
AcDbEntity
  8
0
  6
Continuous
 62
     7
100
AcDbCircle
 10
1465.859049321588
 20
3.800510257198766
 30
0.0
 40
13.9494897427826
100
AcDbArc
 50
254.9999999999724
 51
0.0
  0
LINE
  5
A5A
330
A2E
100
AcDbEntity
  8
0
  6
Continuous
 62
     7
100
AcDbLine
 10
724.9999897427914
 20
245.8798802745841
 30
0.0
 11
958.6088420652959
 21
245.8798802745986
 31
0.0
  0
LINE
  5
A5B
330
A2E
100
AcDbEntity
  8
0
  6
Continuous
 62
     7
100
AcDbLine
 10
958.6088420652959
 20
252.8798802745968
 30
0.0
 11
724.9999897427914
 21
252.8798802745841
 31
0.0
  0
LINE
  5
A5C
330
A2E
100
AcDbEntity
  8
0
  6
Continuous
 62
     7
100
AcDbLine
 10
744.7241152008936
 20
229.7738795600962
 30
0.0
 11
742.9123818851949
 21
236.5353603440981
 31
0.0
  0
ARC
  5
A5D
330
A2E
100
AcDbEntity
  8
0
  6
Continuous
 62
     7
100
AcDbCircle
 10
724.9999897427914
 20
238.9303905317992
 30
0.0
 40
13.9494897427847
100
AcDbArc
 50
180.0
 51
285.0000000000275
  0
ARC
  5
A5E
330
A2E
100
AcDbEntity
  8
0
  6
Continuous
 62
     7
100
AcDbCircle
 10
722.5793380737886
 20
235.1298802745986
 30
0.0
 40
10.74999999999999
100
AcDbArc
 50
194.7500000000122
 51
270.0000000000781
  0
ARC
  5
A5F
330
A2E
100
AcDbEntity
  8
0
  6
Continuous
 62
     7
100
AcDbCircle
 10
740.8590493215888
 20
231.3293700173999
 30
0.0
 40
6.94948974278486
100
AcDbArc
 50
270.0
 51
105.0000000003389
  0
ARC
  5
A60
330
A2E
100
AcDbEntity
  8
0
  6
Continuous
 62
     7
100
AcDbCircle
 10
740.8590493215888
 20
231.3293700173999
 30
0.0
 40
13.9494897427826
100
AcDbArc
 50
0.0
 51
105.0000000000275
  0
LINE
  5
A61
330
A2E
100
AcDbEntity
  8
0
  6
Continuous
 62
     7
100
AcDbLine
 10
705.4142726580612
 20
230.610695694013
 30
0.0
 11
702.8660838169598
 21
240.2893948861146
 31
0.0
  0
LINE
  5
A62
330
A2E
100
AcDbEntity
  8
0
  6
Continuous
 62
     4
100
AcDbLine
 10
725.0
 20
245.1298802745986
 30
0.0
 11
725.0
 21
225.1298802745986
 31
0.0
  0
ARC
  5
A63
330
A2E
100
AcDbEntity
  8
0
  6
Continuous
 62
     7
100
AcDbCircle
 10
740.8590493215888
 20
231.3293700173999
 30
0.0
 40
13.9494897427835
100
AcDbArc
 50
270.0
 51
0.0
  0
ARC
  5
A64
330
A2E
100
AcDbEntity
  8
0
  6
Continuous
 62
     7
100
AcDbCircle
 10
722.5793380738032
 20
235.1298802746005
 30
0.0
 40
17.75
100
AcDbArc
 50
194.7499999997956
 51
269.9999999999544
  0
LINE
  5
A65
330
A2E
100
AcDbEntity
  8
0
  6
Continuous
 62
     7
100
AcDbLine
 10
740.8590493215888
 20
217.3798802746168
 30
0.0
 11
722.5793380737886
 21
217.3798802746005
 31
0.0
  0
LINE
  5
A66
330
A2E
100
AcDbEntity
  8
0
  6
Continuous
 62
     7
100
AcDbLine
 10
728.6103833576926
 20
225.4562181256915
 30
0.0
 11
744.7241152008936
 21
229.7738795600962
 31
0.0
  0
LINE
  5
A67
330
A2E
100
AcDbEntity
  8
0
  6
Continuous
 62
     7
100
AcDbLine
 10
722.5793380738032
 20
224.3798802745986
 30
0.0
 11
740.8590493215888
 21
224.379880274615
 31
0.0
  0
ARC
  5
A68
330
A2E
100
AcDbEntity
  8
0
  6
Continuous
 62
     7
100
AcDbCircle
 10
724.9999897427914
 20
238.9303905317992
 30
0.0
 40
13.9494897427853
100
AcDbArc
 50
90.0
 51
180.0
  0
ARC
  5
A69
330
A2E
100
AcDbEntity
  8
0
  6
Continuous
 62
     7
100
AcDbCircle
 10
695.6132392750442
 20
238.3798802746005
 30
0.0
 40
14.5
100
AcDbArc
 50
14.75000000001217
 51
90.0
  0
ARC
  5
A6A
330
A2E
100
AcDbEntity
  8
0
  6
Continuous
 62
     7
100
AcDbCircle
 10
724.9999897427914
 20
238.9303905317992
 30
0.0
 40
6.94948974278415
100
AcDbArc
 50
90.0
 51
284.9999999999675
  0
LINE
  5
A6B
330
A2E
100
AcDbEntity
  8
0
  6
Continuous
 62
     4
100
AcDbLine
 10
715.0
 20
235.1298802745986
 30
0.0
 11
735.0
 21
235.1298802745986
 31
0.0
  0
ARC
  5
A6C
330
A2E
100
AcDbEntity
  8
0
  6
Continuous
 62
     7
100
AcDbCircle
 10
695.6132392751023
 20
238.3798802745987
 30
0.0
 40
7.5
100
AcDbArc
 50
14.74999999980363
 51
90.0
  0
LINE
  5
A6D
330
A2E
100
AcDbEntity
  8
0
  6
Continuous
 62
     7
100
AcDbLine
 10
709.6354053893009
 20
242.0716085235854
 30
0.0
 11
712.1835942304605
 21
232.3929093313854
 31
0.0
  0
LINE
  5
A6E
330
A2E
100
AcDbEntity
  8
0
  6
Continuous
 62
     7
100
AcDbLine
 10
721.1349238635011
 20
240.485880989001
 30
0.0
 11
737.2486557066877
 21
244.8035424235058
 31
0.0
  0
LINE
  5
A6F
330
A2E
100
AcDbEntity
  8
0
  6
Continuous
 62
     7
100
AcDbLine
 10
742.9123818851949
 20
236.5353603440981
 30
0.0
 11
726.7986500419647
 21
232.2176989097133
 31
0.0
  0
LINE
  5
A70
330
A2E
100
AcDbEntity
  8
0
  6
Continuous
 62
     7
100
AcDbLine
 10
739.060389022372
 20
238.0420616394749
 30
0.0
 11
722.9466571791999
 21
233.7244002049992
 31
0.0
  0
LINE
  5
A71
330
A2E
100
AcDbEntity
  8
0
  6
Continuous
 62
     7
100
AcDbLine
 10
722.9466571791999
 20
233.7244002049992
 30
0.0
 11
721.1349238635011
 21
240.485880989001
 31
0.0
  0
LINE
  5
A72
330
A2E
100
AcDbEntity
  8
0
  6
Continuous
 62
     7
100
AcDbLine
 10
999.7925071692007
 20
222.8798802745986
 30
0.0
 11
977.7007688343292
 21
244.9717196895308
 31
0.0
  0
ARC
  5
A73
330
A2E
100
AcDbEntity
  8
0
  6
Continuous
 62
     7
100
AcDbCircle
 10
958.6088420652959
 20
225.8798802745987
 30
0.0
 40
20.0
100
AcDbArc
 50
44.9998689226894
 51
90.0
  0
ARC
  5
A74
330
A2E
100
AcDbEntity
  8
0
  6
Continuous
 62
     7
100
AcDbCircle
 10
958.6088420652959
 20
225.8798802745987
 30
0.0
 40
26.99999999999739
100
AcDbArc
 50
44.99986892279534
 51
90.0
  0
ENDBLK
  5
A30
330
A2E
100
AcDbEntity
  8
0
100
AcDbBlockEnd
  0
ENDSEC
  0
SECTION
  2
ENTITIES
  0
INSERT
  5
A75
330
1F
100
AcDbEntity
  8
PAZ4470
100
AcDbBlockReference
  2
paz4470
 10
929.5331073055107
 20
-896.1332193985191
 30
-0.0000000003672348
  0
VIEWPORT
  5
6A
330
1B
100
AcDbEntity
 67
     1
  8
0
100
AcDbViewport
 10
144.2296600341796
 20
98.97533035278321
 30
0.0
 40
348.3547377345459
 41
222.1517806396484
 68
     1
 69
     1
 12
144.2296600341796
 22
98.97533035278321
 13
0.0
 23
0.0
 14
10.0
 24
10.0
 15
10.0
 25
10.0
 16
0.0
 26
0.0
 36
1.0
 17
0.0
 27
0.0
 37
0.0
 42
50.0
 43
0.0
 44
0.0
 45
222.1517806396484
 50
0.0
 51
0.0
 72
   100
 90
    32800
  1

281
     0
 71
     1
 74
     0
110
0.0
120
0.0
130
0.0
111
1.0
121
0.0
131
0.0
112
0.0
122
1.0
132
0.0
 79
     0
146
0.0
  0
VIEWPORT
  5
6C
330
1B
100
AcDbEntity
 67
     1
  8
0
100
AcDbViewport
 10
144.2296578884124
 20
98.97533607482911
 30
0.0
 40
230.7674526214599
 41
158.3605377197265
 68
     2
 69
     2
 12
471.9925402099685
 22
207.0118385025535
 13
0.0
 23
0.0
 14
10.0
 24
10.0
 15
10.0
 25
10.0
 16
0.0
 26
0.0
 36
1.0
 17
0.0
 27
0.0
 37
0.0
 42
50.0
 43
0.0
 44
0.0
 45
537.2024815614429
 50
0.0
 51
0.0
 72
   100
 90
    32864
  1

281
     0
 71
     1
 74
     0
110
330.2484756222961
120
239.5669321729576
130
0.0
111
1.0
121
0.0
131
0.0
112
0.0
122
1.0
132
0.0
 79
     0
146
0.0
  0
ENDSEC
  0
SECTION
  2
OBJECTS
  0
DICTIONARY
  5
C
330
0
100
AcDbDictionary
281
     1
  3
ACAD_GROUP
350
D
  3
ACAD_LAYOUT
350
1A
  3
ACAD_MLINESTYLE
350
17
  3
ACAD_PLOTSETTINGS
350
19
  3
ACAD_PLOTSTYLENAME
350
E
  3
AcDbVariableDictionary
350
44
  0
DICTIONARY
  5
2B
330
2
100
AcDbDictionary
280
     1
281
     1
  3
ACAD_LAYERFILTERS
360
2C
  0
DICTIONARY
  5
D
102
{ACAD_REACTORS
330
C
102
}
330
C
100
AcDbDictionary
281
     1
  0
DICTIONARY
  5
1A
102
{ACAD_REACTORS
330
C
102
}
330
C
100
AcDbDictionary
281
     1
  3
Layout1
350
1E
  3
Model
350
22
  0
DICTIONARY
  5
17
102
{ACAD_REACTORS
330
C
102
}
330
C
100
AcDbDictionary
281
     1
  3
Standard
350
18
  0
DICTIONARY
  5
19
102
{ACAD_REACTORS
330
C
102
}
330
C
100
AcDbDictionary
281
     1
  0
ACDBDICTIONARYWDFLT
  5
E
102
{ACAD_REACTORS
330
C
102
}
330
C
100
AcDbDictionary
281
     1
  3
Normal
350
F
100
AcDbDictionaryWithDefault
340
F
  0
DICTIONARY
  5
44
102
{ACAD_REACTORS
330
C
102
}
330
C
100
AcDbDictionary
281
     1
  3
DIMASSOC
350
46
  3
HIDETEXT
350
45
  0
DICTIONARY
  5
2C
102
{ACAD_REACTORS
330
2B
102
}
330
2B
100
AcDbDictionary
280
     1
281
     1
  3
GEO
360
2D
  3
RAK
360
2E
  3
RAK&GEO
360
2F
  0
LAYOUT
  5
1E
102
{ACAD_REACTORS
330
1A
102
}
330
1A
100
AcDbPlotSettings
  1

  2
\\AOBSRV1\FIN9
  4
A4
  6

 40
6.011333465576171
 41
4.233341693878173
 42
6.011322021484375
 43
4.23333740234375
 44
209.9733276367187
 45
296.9259948730469
 46
0.0
 47
0.0
 48
0.0
 49
0.0
140
0.0
141
0.0
142
1.0
143
1.0
 70
   688
 72
     1
 73
     1
 74
     5
  7

 75
    16
147
1.0
148
0.0
149
0.0
100
AcDbLayout
  1
Layout1
 70
     1
 71
     1
 10
-4.23333740234375
 20
-6.011333465576171
 11
292.6926574707031
 21
203.9619941711425
 12
0.0
 22
0.0
 32
0.0
 14
28.8459315776825
 24
19.79506721496582
 34
0.0
 15
259.6133841991424
 25
178.1556049346923
 35
0.0
146
0.0
 13
0.0
 23
0.0
 33
0.0
 16
1.0
 26
0.0
 36
0.0
 17
0.0
 27
1.0
 37
0.0
 76
     0
330
1B
331
6A
  0
LAYOUT
  5
22
102
{ACAD_REACTORS
330
1A
102
}
330
1A
100
AcDbPlotSettings
  1

  2
\\AOBSRV1\FIN9
  4

  6

 40
0.0
 41
0.0
 42
0.0
 43
0.0
 44
0.0
 45
0.0
 46
0.0
 47
0.0
 48
0.0
 49
0.0
140
0.0
141
0.0
142
1.0
143
1.0
 70
  1712
 72
     0
 73
     0
 74
     0
  7

 75
     0
147
1.0
148
0.0
149
0.0
100
AcDbLayout
  1
Model
 70
     1
 71
     0
 10
0.0
 20
0.0
 11
12.0
 21
9.0
 12
0.0
 22
0.0
 32
0.0
 14
0.0
 24
0.0
 34
0.0
 15
0.0
 25
0.0
 35
0.0
146
0.0
 13
0.0
 23
0.0
 33
0.0
 16
1.0
 26
0.0
 36
0.0
 17
0.0
 27
1.0
 37
0.0
 76
     0
330
1F
  0
MLINESTYLE
  5
18
102
{ACAD_REACTORS
330
17
102
}
330
17
100
AcDbMlineStyle
  2
STANDARD
 70
     0
  3

 62
   256
 51
90.0
 52
90.0
 71
     2
 49
0.5
 62
   256
  6
BYLAYER
 49
-0.5
 62
   256
  6
BYLAYER
  0
ACDBPLACEHOLDER
  5
F
102
{ACAD_REACTORS
330
E
102
}
330
E
  0
DICTIONARYVAR
  5
46
102
{ACAD_REACTORS
330
44
102
}
330
44
100
DictionaryVariables
280
     0
  1
2
  0
DICTIONARYVAR
  5
45
102
{ACAD_REACTORS
330
44
102
}
330
44
100
DictionaryVariables
280
     0
  1
1
  0
XRECORD
  5
2D
102
{ACAD_REACTORS
330
2C
102
}
330
2C
100
AcDbXrecord
280
     1
  1
GEO
  1
GEO-*
  1
*
  1
*
 70
     0
  1
*
  1
*
  0
XRECORD
  5
2E
102
{ACAD_REACTORS
330
2C
102
}
330
2C
100
AcDbXrecord
280
     1
  1
RAK
  1
RAK-*
  1
*
  1
*
 70
     0
  1
*
  1
*
  0
XRECORD
  5
2F
102
{ACAD_REACTORS
330
2C
102
}
330
2C
100
AcDbXrecord
280
     1
  1
RAK&GEO
  1
RAK-*,GEO-*
  1
*
  1
*
 70
     0
  1
*
  1
*
  0
ENDSEC
  0
EOF
