  0
SECTION
  2
HEADER
  9
$ACADVER
  1
AC1015
  9
$ACADMAINTVER
 70
    14
  9
$DWGCODEPAGE
  3
ANSI_1252
  9
$INSBASE
 10
0.0
 20
0.0
 30
0.0
  9
$EXTMIN
 10
1067.223803997494
 20
854.8600518055554
 30
0.0
  9
$EXTMAX
 10
2306.280153183597
 20
1219.161563767423
 30
0.0
  9
$LIMMIN
 10
0.0
 20
0.0
  9
$LIMMAX
 10
420.0
 20
297.0
  9
$ORTHOMODE
 70
     0
  9
$REGENMODE
 70
     1
  9
$FILLMODE
 70
     1
  9
$QTEXTMODE
 70
     0
  9
$MIRRTEXT
 70
     1
  9
$LTSCALE
 40
1.0
  9
$ATTMODE
 70
     1
  9
$TEXTSIZE
 40
2.5
  9
$TRACEWID
 40
1.0
  9
$TEXTSTYLE
  7
Standard
  9
$CLAYER
  8
0
  9
$CELTYPE
  6
ByLayer
  9
$CECOLOR
 62
   256
  9
$CELTSCALE
 40
1.0
  9
$DISPSILH
 70
     0
  9
$DIMSCALE
 40
1.0
  9
$DIMASZ
 40
2.5
  9
$DIMEXO
 40
0.625
  9
$DIMDLI
 40
3.75
  9
$DIMRND
 40
0.0
  9
$DIMDLE
 40
0.0
  9
$DIMEXE
 40
1.25
  9
$DIMTP
 40
0.0
  9
$DIMTM
 40
0.0
  9
$DIMTXT
 40
2.5
  9
$DIMCEN
 40
2.5
  9
$DIMTSZ
 40
0.0
  9
$DIMTOL
 70
     0
  9
$DIMLIM
 70
     0
  9
$DIMTIH
 70
     0
  9
$DIMTOH
 70
     0
  9
$DIMSE1
 70
     0
  9
$DIMSE2
 70
     0
  9
$DIMTAD
 70
     1
  9
$DIMZIN
 70
     8
  9
$DIMBLK
  1

  9
$DIMASO
 70
     1
  9
$DIMSHO
 70
     1
  9
$DIMPOST
  1

  9
$DIMAPOST
  1

  9
$DIMALT
 70
     0
  9
$DIMALTD
 70
     3
  9
$DIMALTF
 40
0.03937007874016
  9
$DIMLFAC
 40
1.0
  9
$DIMTOFL
 70
     1
  9
$DIMTVP
 40
0.0
  9
$DIMTIX
 70
     0
  9
$DIMSOXD
 70
     0
  9
$DIMSAH
 70
     0
  9
$DIMBLK1
  1

  9
$DIMBLK2
  1

  9
$DIMSTYLE
  2
ISO-25
  9
$DIMCLRD
 70
     0
  9
$DIMCLRE
 70
     0
  9
$DIMCLRT
 70
     0
  9
$DIMTFAC
 40
1.0
  9
$DIMGAP
 40
0.625
  9
$DIMJUST
 70
     0
  9
$DIMSD1
 70
     0
  9
$DIMSD2
 70
     0
  9
$DIMTOLJ
 70
     0
  9
$DIMTZIN
 70
     8
  9
$DIMALTZ
 70
     0
  9
$DIMALTTZ
 70
     0
  9
$DIMUPT
 70
     0
  9
$DIMDEC
 70
     2
  9
$DIMTDEC
 70
     2
  9
$DIMALTU
 70
     2
  9
$DIMALTTD
 70
     3
  9
$DIMTXSTY
  7
Standard
  9
$DIMAUNIT
 70
     0
  9
$DIMADEC
 70
     0
  9
$DIMALTRND
 40
0.0
  9
$DIMAZIN
 70
     0
  9
$DIMDSEP
 70
    44
  9
$DIMATFIT
 70
     3
  9
$DIMFRAC
 70
     0
  9
$DIMLDRBLK
  1

  9
$DIMLUNIT
 70
     2
  9
$DIMLWD
 70
    -2
  9
$DIMLWE
 70
    -2
  9
$DIMTMOVE
 70
     0
  9
$LUNITS
 70
     2
  9
$LUPREC
 70
     4
  9
$SKETCHINC
 40
1.0
  9
$FILLETRAD
 40
10.0
  9
$AUNITS
 70
     0
  9
$AUPREC
 70
     0
  9
$MENU
  1
.
  9
$ELEVATION
 40
0.0
  9
$PELEVATION
 40
0.0
  9
$THICKNESS
 40
0.0
  9
$LIMCHECK
 70
     0
  9
$CHAMFERA
 40
10.0
  9
$CHAMFERB
 40
10.0
  9
$CHAMFERC
 40
20.0
  9
$CHAMFERD
 40
0.0
  9
$SKPOLY
 70
     0
  9
$TDCREATE
 40
2452984.401453715
  9
$TDUCREATE
 40
2452984.359787048
  9
$TDUPDATE
 40
2452989.717265706
  9
$TDUUPDATE
 40
2452989.675599039
  9
$TDINDWG
 40
0.0263022917
  9
$TDUSRTIMER
 40
0.0263021065
  9
$USRTIMER
 70
     1
  9
$ANGBASE
 50
0.0
  9
$ANGDIR
 70
     0
  9
$PDMODE
 70
     0
  9
$PDSIZE
 40
0.0
  9
$PLINEWID
 40
0.0
  9
$SPLFRAME
 70
     0
  9
$SPLINETYPE
 70
     6
  9
$SPLINESEGS
 70
     8
  9
$HANDSEED
  5
9A3
  9
$SURFTAB1
 70
     6
  9
$SURFTAB2
 70
     6
  9
$SURFTYPE
 70
     6
  9
$SURFU
 70
     6
  9
$SURFV
 70
     6
  9
$UCSBASE
  2

  9
$UCSNAME
  2

  9
$UCSORG
 10
1086.751978590546
 20
1037.010807786489
 30
0.0
  9
$UCSXDIR
 10
1.0
 20
0.0
 30
0.0
  9
$UCSYDIR
 10
0.0
 20
1.0
 30
0.0
  9
$UCSORTHOREF
  2

  9
$UCSORTHOVIEW
 70
     0
  9
$UCSORGTOP
 10
0.0
 20
0.0
 30
0.0
  9
$UCSORGBOTTOM
 10
0.0
 20
0.0
 30
0.0
  9
$UCSORGLEFT
 10
0.0
 20
0.0
 30
0.0
  9
$UCSORGRIGHT
 10
0.0
 20
0.0
 30
0.0
  9
$UCSORGFRONT
 10
0.0
 20
0.0
 30
0.0
  9
$UCSORGBACK
 10
0.0
 20
0.0
 30
0.0
  9
$PUCSBASE
  2

  9
$PUCSNAME
  2

  9
$PUCSORG
 10
0.0
 20
0.0
 30
0.0
  9
$PUCSXDIR
 10
1.0
 20
0.0
 30
0.0
  9
$PUCSYDIR
 10
0.0
 20
1.0
 30
0.0
  9
$PUCSORTHOREF
  2

  9
$PUCSORTHOVIEW
 70
     0
  9
$PUCSORGTOP
 10
0.0
 20
0.0
 30
0.0
  9
$PUCSORGBOTTOM
 10
0.0
 20
0.0
 30
0.0
  9
$PUCSORGLEFT
 10
0.0
 20
0.0
 30
0.0
  9
$PUCSORGRIGHT
 10
0.0
 20
0.0
 30
0.0
  9
$PUCSORGFRONT
 10
0.0
 20
0.0
 30
0.0
  9
$PUCSORGBACK
 10
0.0
 20
0.0
 30
0.0
  9
$USERI1
 70
     0
  9
$USERI2
 70
     0
  9
$USERI3
 70
     0
  9
$USERI4
 70
     0
  9
$USERI5
 70
     0
  9
$USERR1
 40
0.0
  9
$USERR2
 40
0.0
  9
$USERR3
 40
0.0
  9
$USERR4
 40
0.0
  9
$USERR5
 40
0.0
  9
$WORLDVIEW
 70
     1
  9
$SHADEDGE
 70
     3
  9
$SHADEDIF
 70
    70
  9
$TILEMODE
 70
     1
  9
$MAXACTVP
 70
    64
  9
$PINSBASE
 10
0.0
 20
0.0
 30
0.0
  9
$PLIMCHECK
 70
     0
  9
$PEXTMIN
 10
28.8459315776825
 20
19.79506721496582
 30
0.0
  9
$PEXTMAX
 10
259.6133841991424
 20
178.1556049346923
 30
0.0
  9
$PLIMMIN
 10
-4.23333740234375
 20
-6.011333465576171
  9
$PLIMMAX
 10
292.6926574707031
 20
203.9619941711425
  9
$UNITMODE
 70
     0
  9
$VISRETAIN
 70
     1
  9
$PLINEGEN
 70
     0
  9
$PSLTSCALE
 70
     1
  9
$TREEDEPTH
 70
  3020
  9
$CMLSTYLE
  2
Standard
  9
$CMLJUST
 70
     0
  9
$CMLSCALE
 40
20.0
  9
$PROXYGRAPHICS
 70
     1
  9
$MEASUREMENT
 70
     1
  9
$CELWEIGHT
370
    -1
  9
$ENDCAPS
280
     0
  9
$JOINSTYLE
280
     0
  9
$LWDISPLAY
290
     0
  9
$INSUNITS
 70
     4
  9
$HYPERLINKBASE
  1

  9
$STYLESHEET
  1

  9
$XEDIT
290
     1
  9
$CEPSNTYPE
380
     0
  9
$PSTYLEMODE
290
     1
  9
$FINGERPRINTGUID
  2
{1F0C9108-7A24-43FE-92C0-F61D6143634A}
  9
$VERSIONGUID
  2
{0E3CF4D1-99B7-4158-A8E5-4C57E3647830}
  9
$EXTNAMES
290
     1
  9
$PSVPSCALE
 40
0.0
  9
$OLESTARTUP
290
     0
  0
ENDSEC
  0
SECTION
  2
CLASSES
  0
CLASS
  1
ACDBDICTIONARYWDFLT
  2
AcDbDictionaryWithDefault
  3
AutoCAD 2000
 90
        0
280
     0
281
     0
  0
CLASS
  1
ACDBPLACEHOLDER
  2
AcDbPlaceHolder
  3
AutoCAD 2000
 90
        0
280
     0
281
     0
  0
CLASS
  1
LAYOUT
  2
AcDbLayout
  3
AutoCAD 2000
 90
        0
280
     0
281
     0
  0
CLASS
  1
DICTIONARYVAR
  2
AcDbDictionaryVar
  3
AutoCAD 2000
 90
        0
280
     0
281
     0
  0
ENDSEC
  0
SECTION
  2
TABLES
  0
TABLE
  2
VPORT
  5
8
330
0
100
AcDbSymbolTable
 70
     2
  0
VPORT
  5
9A2
330
8
100
AcDbSymbolTableRecord
100
AcDbViewportTableRecord
  2
*Active
 70
     0
 10
0.0
 20
0.0
 11
1.0
 21
1.0
 12
1689.926360037906
 22
1036.983082088088
 13
0.0
 23
0.0
 14
10.0
 24
10.0
 15
10.0
 25
10.0
 16
0.0
 26
0.0
 36
1.0
 17
0.0
 27
0.0
 37
0.0
 40
834.6800613742903
 41
1.5
 42
50.0
 43
0.0
 44
0.0
 50
0.0
 51
0.0
 71
     0
 72
   100
 73
     1
 74
     3
 75
     0
 76
     0
 77
     0
 78
     0
281
     0
 65
     1
110
1086.751978590546
120
1037.010807786489
130
0.0
111
1.0
121
0.0
131
0.0
112
0.0
122
1.0
132
0.0
 79
     0
146
0.0
  0
ENDTAB
  0
TABLE
  2
LTYPE
  5
5
330
0
100
AcDbSymbolTable
 70
     1
  0
LTYPE
  5
14
330
5
100
AcDbSymbolTableRecord
100
AcDbLinetypeTableRecord
  2
ByBlock
 70
     0
  3

 72
    65
 73
     0
 40
0.0
  0
LTYPE
  5
15
330
5
100
AcDbSymbolTableRecord
100
AcDbLinetypeTableRecord
  2
ByLayer
 70
     0
  3

 72
    65
 73
     0
 40
0.0
  0
LTYPE
  5
16
330
5
100
AcDbSymbolTableRecord
100
AcDbLinetypeTableRecord
  2
Continuous
 70
     0
  3
Solid line
 72
    65
 73
     0
 40
0.0
  0
ENDTAB
  0
TABLE
  2
LAYER
  5
2
102
{ACAD_XDICTIONARY
360
2B
102
}
330
0
100
AcDbSymbolTable
 70
     1
  0
LAYER
  5
10
330
2
100
AcDbSymbolTableRecord
100
AcDbLayerTableRecord
  2
0
 70
     0
 62
     7
  6
Continuous
370
    -3
390
F
  0
ENDTAB
  0
TABLE
  2
STYLE
  5
3
330
0
100
AcDbSymbolTable
 70
     1
  0
STYLE
  5
11
330
3
100
AcDbSymbolTableRecord
100
AcDbTextStyleTableRecord
  2
Standard
 70
     0
 40
0.0
 41
1.0
 50
0.0
 71
     0
 42
2.5
  3
txt
  4

  0
ENDTAB
  0
TABLE
  2
VIEW
  5
6
330
0
100
AcDbSymbolTable
 70
     0
  0
ENDTAB
  0
TABLE
  2
UCS
  5
7
330
0
100
AcDbSymbolTable
 70
     0
  0
ENDTAB
  0
TABLE
  2
APPID
  5
9
330
0
100
AcDbSymbolTable
 70
     1
  0
APPID
  5
12
330
9
100
AcDbSymbolTableRecord
100
AcDbRegAppTableRecord
  2
ACAD
 70
     0
  0
ENDTAB
  0
TABLE
  2
DIMSTYLE
  5
A
330
0
100
AcDbSymbolTable
 70
     1
100
AcDbDimStyleTable
 71
     0
  0
DIMSTYLE
105
27
330
A
100
AcDbSymbolTableRecord
100
AcDbDimStyleTableRecord
  2
ISO-25
 70
     0
 41
2.5
 42
0.625
 43
3.75
 44
1.25
 73
     0
 74
     0
 77
     1
 78
     8
140
2.5
141
2.5
143
0.03937007874016
147
0.625
171
     3
172
     1
271
     2
272
     2
274
     3
278
    44
283
     0
284
     8
340
11
  0
ENDTAB
  0
TABLE
  2
BLOCK_RECORD
  5
1
330
0
100
AcDbSymbolTable
 70
     1
  0
BLOCK_RECORD
  5
1F
330
1
100
AcDbSymbolTableRecord
100
AcDbBlockTableRecord
  2
*Model_Space
340
22
  0
BLOCK_RECORD
  5
1B
330
1
100
AcDbSymbolTableRecord
100
AcDbBlockTableRecord
  2
*Paper_Space
340
1E
  0
BLOCK_RECORD
  5
920
330
1
100
AcDbSymbolTableRecord
100
AcDbBlockTableRecord
  2
pu12d
340
0
310
2800000020000000200000000100080000000000000400000000000000000000000000000000000000000000000080000080000000808000800000008000800080800000C0C0C000C0DCC000F0CAA6000020400000206000002080000020A0000020C0000020E00000400000004020000040400000406000004080000040A0
310
000040C0000040E00000600000006020000060400000606000006080000060A0000060C0000060E00000800000008020000080400000806000008080000080A0000080C0000080E00000A0000000A0200000A0400000A0600000A0800000A0A00000A0C00000A0E00000C0000000C0200000C0400000C0600000C0800000C0
310
A00000C0C00000C0E00000E0000000E0200000E0400000E0600000E0800000E0A00000E0C00000E0E00040000000400020004000400040006000400080004000A0004000C0004000E00040200000402020004020400040206000402080004020A0004020C0004020E000404000004040200040404000404060004040800040
310
40A0004040C0004040E00040600000406020004060400040606000406080004060A0004060C0004060E00040800000408020004080400040806000408080004080A0004080C0004080E00040A0000040A0200040A0400040A0600040A0800040A0A00040A0C00040A0E00040C0000040C0200040C0400040C0600040C08000
310
40C0A00040C0C00040C0E00040E0000040E0200040E0400040E0600040E0800040E0A00040E0C00040E0E00080000000800020008000400080006000800080008000A0008000C0008000E00080200000802020008020400080206000802080008020A0008020C0008020E00080400000804020008040400080406000804080
310
008040A0008040C0008040E00080600000806020008060400080606000806080008060A0008060C0008060E00080800000808020008080400080806000808080008080A0008080C0008080E00080A0000080A0200080A0400080A0600080A0800080A0A00080A0C00080A0E00080C0000080C0200080C0400080C0600080C0
310
800080C0A00080C0C00080C0E00080E0000080E0200080E0400080E0600080E0800080E0A00080E0C00080E0E000C0000000C0002000C0004000C0006000C0008000C000A000C000C000C000E000C0200000C0202000C0204000C0206000C0208000C020A000C020C000C020E000C0400000C0402000C0404000C0406000C0
310
408000C040A000C040C000C040E000C0600000C0602000C0604000C0606000C0608000C060A000C060C000C060E000C0800000C0802000C0804000C0806000C0808000C080A000C080C000C080E000C0A00000C0A02000C0A04000C0A06000C0A08000C0A0A000C0A0C000C0A0E000C0C00000C0C02000C0C04000C0C06000
310
C0C08000C0C0A000F0FBFF00A4A0A000808080000000FF0000FF000000FFFF00FF000000FF00FF00FFFF0000FFFFFF0000000000000000000000000000000000000000000000000000000000000000000000000000000000000000000000000000000000000000000000000000000000000000000000000000000000000000
310
00000000000000000000000000000000000000000000000000000000000000000000000000000000000000000000000000000000000000000000000000000000000000000000000000000000000000000000000000000000000000000000000000000000000000000000000000000000000000000000000000000000000000
310
00000000000000000000000000000000000000000000000000000000000000000000000000000000000000000000000000000000000000000000000000000000000000000000000000000000000000000000000000000000000000000000000000000000000000000000000000000000000000000000000000000000000000
310
00000000000000000000000000000000000000000000000000FFFFFFFFFFFFFF000000000000000000000000000000000000000000000000FFFFFFFFFFFFFFFF0000000000000000000000000000000000000000000000FF0000000000000000FF000000000000000000000000000000000000000000FFFF00000000000000
310
0000FF000000000000000000000000000000000000FFFFFF0000000000000000000000FFFF000000000000000000000000FFFF0000FFFF000000000000000000000000FFFF0000000000000000000000FFFFFF000000000000000000000000000000000000FF000000000000000000FFFF0000000000000000000000000000
310
00000000000000FF0000000000000000FF0000000000000000000000000000000000000000000000FFFFFFFFFFFFFFFF000000000000000000000000000000000000000000000000FFFFFFFFFFFFFF000000000000000000000000000000000000000000000000000000000000000000000000000000000000000000000000
310
00000000000000000000000000000000000000000000000000000000000000000000000000000000000000000000000000000000000000000000000000000000000000000000000000000000000000000000000000000000000000000000000000000000000000000000000000000000000000000000000000000000000000
310
00000000000000000000000000000000000000000000000000000000000000000000000000000000000000000000000000000000000000000000000000000000000000000000000000000000000000000000000000000000000000000000000000000000000000000000000000000000000000000000000000000000000000
310
0000000000000000000000000000000000000000000000000000000000000000000000000000000000000000000000000000000000000000
102
{BLKREFS
331
989
102
}
1001
ACAD
1000
DesignCenter Data
1002
{
1070
     1
1070
     4
1002
}
  0
ENDTAB
  0
ENDSEC
  0
SECTION
  2
BLOCKS
  0
BLOCK
  5
20
330
1F
100
AcDbEntity
  8
0
100
AcDbBlockBegin
  2
*Model_Space
 70
     0
 10
0.0
 20
0.0
 30
0.0
  3
*Model_Space
  1

  0
ENDBLK
  5
21
330
1F
100
AcDbEntity
  8
0
100
AcDbBlockEnd
  0
BLOCK
  5
1C
330
1B
100
AcDbEntity
 67
     1
  8
0
100
AcDbBlockBegin
  2
*Paper_Space
 70
     0
 10
0.0
 20
0.0
 30
0.0
  3
*Paper_Space
  1

  0
ENDBLK
  5
1D
330
1B
100
AcDbEntity
 67
     1
  8
0
100
AcDbBlockEnd
  0
BLOCK
  5
921
330
920
100
AcDbEntity
  8
0
100
AcDbBlockBegin
  2
pu12d
 70
     0
 10
0.0
 20
0.0
 30
0.0
  3
pu12d
  1

  0
LINE
  5
923
330
920
100
AcDbEntity
  8
0
 62
     7
100
AcDbLine
 10
1035.018406114413
 20
180.0
 30
0.0
 11
900.0
 21
180.0
 31
0.0
  0
LINE
  5
924
330
920
100
AcDbEntity
  8
0
 62
     7
100
AcDbLine
 10
1029.097194532485
 20
170.1999999999998
 30
0.0
 11
900.0
 21
170.1999999999998
 31
0.0
  0
LINE
  5
925
330
920
100
AcDbEntity
  8
0
 62
     7
100
AcDbLine
 10
435.0184061144136
 20
-180.0
 30
0.0
 11
300.0
 21
-180.0
 31
0.0
  0
LINE
  5
926
330
920
100
AcDbEntity
  8
0
 62
     7
100
AcDbLine
 10
429.0971945324854
 20
-170.1999999999998
 30
0.0
 11
300.0
 21
-170.1999999999998
 31
0.0
  0
LINE
  5
927
330
920
100
AcDbEntity
  8
0
 62
     7
100
AcDbLine
 10
28.07540862463793
 20
-28.87162951484151
 30
0.0
 11
145.7266077761014
 21
-170.9450779215312
 31
0.0
  0
LINE
  5
928
330
920
100
AcDbEntity
  8
0
 62
     7
100
AcDbLine
 10
36.75763295487195
 20
-25.24518808843367
 30
0.0
 11
147.7968221361334
 21
-159.3340935058368
 31
0.0
  0
ARC
  5
929
330
920
100
AcDbEntity
  8
0
 62
     7
100
AcDbCircle
 10
0.349715906795609
 20
9.5
 30
0.0
 40
20.0
100
AcDbArc
 50
220.5383065501068
 51
270.0
  0
ARC
  5
92A
330
920
100
AcDbEntity
  8
0
 62
     7
100
AcDbCircle
 10
-6.25
 20
10.5
 30
0.0
 40
11.0
100
AcDbArc
 50
90.0
 51
180.0
  0
ARC
  5
92B
330
920
100
AcDbEntity
  8
0
 62
     7
100
AcDbCircle
 10
-7.25
 20
3.000437081160271
 30
0.0
 40
10.0
100
AcDbArc
 50
180.0
 51
220.5383065500885
  0
LINE
  5
92C
330
920
100
AcDbEntity
  8
0
 62
     7
100
AcDbLine
 10
-17.25
 20
3.000437081160271
 30
0.0
 11
-17.25
 21
10.5
 31
0.0
  0
LINE
  5
92D
330
920
100
AcDbEntity
  8
0
 62
     7
100
AcDbLine
 10
22.4544826441197
 20
-15.41432121499565
 30
0.0
 11
20.11312721772992
 21
7.997553924336898
 31
0.0
  0
LINE
  5
92E
330
920
100
AcDbEntity
  8
0
 62
     7
100
AcDbLine
 10
6.545248191541759
 20
-6.787101521733347
 30
0.0
 11
-7.257391819079202
 21
5.64085136581707
 31
0.0
  0
LINE
  5
92F
330
920
100
AcDbEntity
  8
0
 62
     7
100
AcDbLine
 10
31.13670697435009
 20
-11.7878797885869
 30
0.0
 11
28.798289430375
 21
11.59461863354044
 31
0.0
  0
LINE
  5
930
330
920
100
AcDbEntity
  8
0
 62
     4
100
AcDbLine
 10
0.0
 20
-10.0
 30
0.0
 11
0.0
 21
10.0
 31
0.0
  0
ARC
  5
931
330
920
100
AcDbEntity
  8
0
 62
     7
100
AcDbCircle
 10
47.33039473411918
 20
-12.92655159331116
 30
0.0
 40
25.0
100
AcDbArc
 50
185.7109999999986
 51
219.6281978375258
  0
LINE
  5
932
330
920
100
AcDbEntity
  8
0
 62
     7
100
AcDbLine
 10
0.349715906795609
 20
-10.5
 30
0.0
 11
5.119999999998981
 21
-10.5
 31
0.0
  0
ARC
  5
933
330
920
100
AcDbEntity
  8
0
 62
     7
100
AcDbCircle
 10
5.119999999998981
 20
-8.36999999999989
 30
0.0
 40
2.129999999999999
100
AcDbArc
 50
270.0
 51
48.00000000002441
  0
ARC
  5
934
330
920
100
AcDbEntity
  8
0
 62
     7
100
AcDbCircle
 10
56.0126190643532
 20
-9.300110166903323
 30
0.0
 40
25.0
100
AcDbArc
 50
185.7109999999986
 51
219.6281978375258
  0
ARC
  5
935
330
920
100
AcDbEntity
  8
0
 62
     7
100
AcDbCircle
 10
17.85288811077771
 20
10.5
 30
0.0
 40
11.0
100
AcDbArc
 50
5.710999999998601
 51
90.0
  0
LINE
  5
936
330
920
100
AcDbEntity
  8
0
 62
     7
100
AcDbLine
 10
-5.25
 20
12.5
 30
0.0
 11
15.13794479972784
 21
12.5
 31
0.0
  0
LINE
  5
937
330
920
100
AcDbEntity
  8
0
 62
     7
100
AcDbLine
 10
-6.25
 20
21.49999999999999
 30
0.0
 11
17.85288811077771
 21
21.49999999999999
 31
0.0
  0
LINE
  5
938
330
920
100
AcDbEntity
  8
0
 62
     4
100
AcDbLine
 10
-10.0
 20
0.0
 30
0.0
 11
10.0
 21
0.0
 31
0.0
  0
ARC
  5
939
330
920
100
AcDbEntity
  8
0
 62
     7
100
AcDbCircle
 10
-5.25
 20
9.5
 30
0.0
 40
3.0
100
AcDbArc
 50
90.0
 51
180.0
  0
LINE
  5
93A
330
920
100
AcDbEntity
  8
0
 62
     7
100
AcDbLine
 10
-8.25
 20
7.870285842249359
 30
0.0
 11
-8.25
 21
9.5
 31
0.0
  0
ARC
  5
93B
330
920
100
AcDbEntity
  8
0
 62
     7
100
AcDbCircle
 10
-5.25
 20
7.870285842249359
 30
0.0
 40
3.0
100
AcDbArc
 50
180.0
 51
227.9999999999595
  0
ARC
  5
93C
330
920
100
AcDbEntity
  8
0
 62
     7
100
AcDbCircle
 10
15.13794479972784
 20
7.5
 30
0.0
 40
5.0
100
AcDbArc
 50
5.710999999998601
 51
90.0
  0
LINE
  5
93D
330
920
100
AcDbEntity
  8
0
 62
     7
100
AcDbLine
 10
164.9815938855827
 20
-180.0
 30
0.0
 11
300.0
 21
-180.0
 31
0.0
  0
LINE
  5
93E
330
920
100
AcDbEntity
  8
0
 62
     7
100
AcDbLine
 10
170.9028054675109
 20
-170.1999999999998
 30
0.0
 11
300.0
 21
-170.1999999999998
 31
0.0
  0
ARC
  5
93F
330
920
100
AcDbEntity
  8
0
 62
     7
100
AcDbCircle
 10
170.9028054675109
 20
-140.1999999999998
 30
0.0
 40
30.0
100
AcDbArc
 50
219.6281978375258
 51
270.0
  0
ARC
  5
940
330
920
100
AcDbEntity
  8
0
 62
     7
100
AcDbCircle
 10
164.9815938855827
 20
-155.0
 30
0.0
 40
25.0
100
AcDbArc
 50
219.6281978375258
 51
270.0
  0
LINE
  5
941
330
920
100
AcDbEntity
  8
0
 62
     7
100
AcDbLine
 10
628.0754086246379
 20
28.87162951484151
 30
0.0
 11
745.7266077761014
 21
170.9450779215312
 31
0.0
  0
LINE
  5
942
330
920
100
AcDbEntity
  8
0
 62
     7
100
AcDbLine
 10
636.7576329548719
 20
25.24518808843367
 30
0.0
 11
747.7968221361334
 21
159.3340935058368
 31
0.0
  0
LINE
  5
943
330
920
100
AcDbEntity
  8
0
 62
     7
100
AcDbLine
 10
571.9245913753584
 20
-28.87162951484151
 30
0.0
 11
454.2733922238949
 21
-170.9450779215312
 31
0.0
  0
LINE
  5
944
330
920
100
AcDbEntity
  8
0
 62
     7
100
AcDbLine
 10
563.2423670451244
 20
-25.24518808843367
 30
0.0
 11
452.2031778638629
 21
-159.3340935058368
 31
0.0
  0
ARC
  5
945
330
920
100
AcDbEntity
  8
0
 62
     7
100
AcDbCircle
 10
435.0184061144136
 20
-155.0
 30
0.0
 40
25.0
100
AcDbArc
 50
270.0
 51
320.3718021624741
  0
ARC
  5
946
330
920
100
AcDbEntity
  8
0
 62
     7
100
AcDbCircle
 10
429.0971945324854
 20
-140.1999999999998
 30
0.0
 40
30.0
100
AcDbArc
 50
270.0
 51
320.3718021624741
  0
ARC
  5
947
330
920
100
AcDbEntity
  8
0
 62
     7
100
AcDbCircle
 10
543.9873809356432
 20
-9.300110166903323
 30
0.0
 40
25.0
100
AcDbArc
 50
320.3718021624741
 51
354.2890000000014
  0
LINE
  5
948
330
920
100
AcDbEntity
  8
0
 62
     7
100
AcDbLine
 10
622.4544826441197
 20
15.41432121499565
 30
0.0
 11
620.1131272177299
 21
-7.997553924336898
 31
0.0
  0
LINE
  5
949
330
920
100
AcDbEntity
  8
0
 62
     7
100
AcDbLine
 10
606.5452481915417
 20
6.787101521733347
 30
0.0
 11
592.7426081809207
 21
-5.64085136581707
 31
0.0
  0
ARC
  5
94A
330
920
100
AcDbEntity
  8
0
 62
     7
100
AcDbCircle
 10
592.75
 20
-3.000437081160271
 30
0.0
 40
10.0
100
AcDbArc
 50
139.4616934499115
 51
180.0
  0
LINE
  5
94B
330
920
100
AcDbEntity
  8
0
 62
     7
100
AcDbLine
 10
631.1367069743501
 20
11.7878797885869
 30
0.0
 11
628.798289430375
 21
-11.59461863354044
 31
0.0
  0
LINE
  5
94C
330
920
100
AcDbEntity
  8
0
 62
     7
100
AcDbLine
 10
577.5455173558802
 20
-15.41432121499565
 30
0.0
 11
579.8868727822664
 21
7.997553924336898
 31
0.0
  0
LINE
  5
94D
330
920
100
AcDbEntity
  8
0
 62
     7
100
AcDbLine
 10
593.4547518084546
 20
-6.787101521733347
 30
0.0
 11
607.2573918190755
 21
5.64085136581707
 31
0.0
  0
ARC
  5
94E
330
920
100
AcDbEntity
  8
0
 62
     7
100
AcDbCircle
 10
607.2499999999999
 20
3.000437081160271
 30
0.0
 40
10.0
100
AcDbArc
 50
319.4616934498931
 51
0.0
  0
LINE
  5
94F
330
920
100
AcDbEntity
  8
0
 62
     7
100
AcDbLine
 10
568.8632930256463
 20
-11.7878797885869
 30
0.0
 11
571.2017105696213
 21
11.59461863354044
 31
0.0
  0
LINE
  5
950
330
920
100
AcDbEntity
  8
0
 62
     4
100
AcDbLine
 10
600.0
 20
-10.0
 30
0.0
 11
600.0
 21
10.0
 31
0.0
  0
LINE
  5
951
330
920
100
AcDbEntity
  8
0
 62
     7
100
AcDbLine
 10
594.7499999999999
 20
-12.5
 30
0.0
 11
615.1379447997278
 21
-12.5
 31
0.0
  0
LINE
  5
952
330
920
100
AcDbEntity
  8
0
 62
     7
100
AcDbLine
 10
593.75
 20
-21.49999999999999
 30
0.0
 11
617.8528881107776
 21
-21.49999999999999
 31
0.0
  0
ARC
  5
953
330
920
100
AcDbEntity
  8
0
 62
     7
100
AcDbCircle
 10
599.6502840932008
 20
9.5
 30
0.0
 40
20.0
100
AcDbArc
 50
270.0
 51
319.4616934498931
  0
ARC
  5
954
330
920
100
AcDbEntity
  8
0
 62
     7
100
AcDbCircle
 10
552.6696052658771
 20
-12.92655159331116
 30
0.0
 40
25.0
100
AcDbArc
 50
320.3718021624741
 51
354.2890000000014
  0
ARC
  5
955
330
920
100
AcDbEntity
  8
0
 62
     7
100
AcDbCircle
 10
593.75
 20
-10.5
 30
0.0
 40
11.0
100
AcDbArc
 50
180.0
 51
270.0
  0
LINE
  5
956
330
920
100
AcDbEntity
  8
0
 62
     7
100
AcDbLine
 10
582.7499999999999
 20
-3.000437081160271
 30
0.0
 11
582.7499999999999
 21
-10.5
 31
0.0
  0
ARC
  5
957
330
920
100
AcDbEntity
  8
0
 62
     7
100
AcDbCircle
 10
594.7499999999999
 20
-9.5
 30
0.0
 40
3.0
100
AcDbArc
 50
180.0
 51
270.0
  0
LINE
  5
958
330
920
100
AcDbEntity
  8
0
 62
     7
100
AcDbLine
 10
591.75
 20
-7.870285842249359
 30
0.0
 11
591.75
 21
-9.5
 31
0.0
  0
ARC
  5
959
330
920
100
AcDbEntity
  8
0
 62
     7
100
AcDbCircle
 10
594.7499999999999
 20
-7.870285842249359
 30
0.0
 40
3.0
100
AcDbArc
 50
132.0000000000404
 51
180.0
  0
ARC
  5
95A
330
920
100
AcDbEntity
  8
0
 62
     7
100
AcDbCircle
 10
594.8799999999973
 20
-8.36999999999989
 30
0.0
 40
2.129999999999999
100
AcDbArc
 50
131.9999999999755
 51
270.0
  0
LINE
  5
95B
330
920
100
AcDbEntity
  8
0
 62
     7
100
AcDbLine
 10
599.6502840932008
 20
-10.5
 30
0.0
 11
594.8799999999973
 21
-10.5
 31
0.0
  0
ARC
  5
95C
330
920
100
AcDbEntity
  8
0
 62
     7
100
AcDbCircle
 10
615.1379447997278
 20
-7.5
 30
0.0
 40
5.0
100
AcDbArc
 50
270.0
 51
354.2890000000014
  0
ARC
  5
95D
330
920
100
AcDbEntity
  8
0
 62
     7
100
AcDbCircle
 10
617.8528881107776
 20
-10.5
 30
0.0
 40
11.0
100
AcDbArc
 50
270.0
 51
354.2890000000014
  0
LINE
  5
95E
330
920
100
AcDbEntity
  8
0
 62
     7
100
AcDbLine
 10
600.3497159067956
 20
10.5
 30
0.0
 11
605.1199999999989
 21
10.5
 31
0.0
  0
LINE
  5
95F
330
920
100
AcDbEntity
  8
0
 62
     7
100
AcDbLine
 10
605.25
 20
12.5
 30
0.0
 11
584.8620552002684
 21
12.5
 31
0.0
  0
LINE
  5
960
330
920
100
AcDbEntity
  8
0
 62
     7
100
AcDbLine
 10
606.25
 20
21.49999999999999
 30
0.0
 11
582.1471118892186
 21
21.49999999999999
 31
0.0
  0
LINE
  5
961
330
920
100
AcDbEntity
  8
0
 62
     4
100
AcDbLine
 10
610.0
 20
0.0
 30
0.0
 11
590.0
 21
0.0
 31
0.0
  0
ARC
  5
962
330
920
100
AcDbEntity
  8
0
 62
     7
100
AcDbCircle
 10
584.8620552002684
 20
7.5
 30
0.0
 40
5.0
100
AcDbArc
 50
90.0
 51
174.2890000000013
  0
ARC
  5
963
330
920
100
AcDbEntity
  8
0
 62
     7
100
AcDbCircle
 10
582.1471118892186
 20
10.5
 30
0.0
 40
11.0
100
AcDbArc
 50
90.0
 51
174.2890000000013
  0
ARC
  5
964
330
920
100
AcDbEntity
  8
0
 62
     7
100
AcDbCircle
 10
600.3497159067956
 20
-9.5
 30
0.0
 40
20.0
100
AcDbArc
 50
90.0
 51
139.4616934498931
  0
ARC
  5
965
330
920
100
AcDbEntity
  8
0
 62
     7
100
AcDbCircle
 10
647.3303947341191
 20
12.92655159331116
 30
0.0
 40
25.0
100
AcDbArc
 50
140.3718021624741
 51
174.2890000000013
  0
ARC
  5
966
330
920
100
AcDbEntity
  8
0
 62
     7
100
AcDbCircle
 10
656.0126190643532
 20
9.300110166903323
 30
0.0
 40
25.0
100
AcDbArc
 50
140.3718021624741
 51
174.2890000000013
  0
ARC
  5
967
330
920
100
AcDbEntity
  8
0
 62
     7
100
AcDbCircle
 10
605.1199999999989
 20
8.36999999999989
 30
0.0
 40
2.129999999999999
100
AcDbArc
 50
311.9999999999756
 51
90.0
  0
ARC
  5
968
330
920
100
AcDbEntity
  8
0
 62
     7
100
AcDbCircle
 10
605.25
 20
9.5
 30
0.0
 40
3.0
100
AcDbArc
 50
0.0
 51
90.0
  0
LINE
  5
969
330
920
100
AcDbEntity
  8
0
 62
     7
100
AcDbLine
 10
608.25
 20
7.870285842249359
 30
0.0
 11
608.25
 21
9.5
 31
0.0
  0
ARC
  5
96A
330
920
100
AcDbEntity
  8
0
 62
     7
100
AcDbCircle
 10
605.25
 20
7.870285842249359
 30
0.0
 40
3.0
100
AcDbArc
 50
311.9999999999852
 51
0.0
  0
LINE
  5
96B
330
920
100
AcDbEntity
  8
0
 62
     7
100
AcDbLine
 10
617.25
 20
3.000437081160271
 30
0.0
 11
617.25
 21
10.5
 31
0.0
  0
ARC
  5
96C
330
920
100
AcDbEntity
  8
0
 62
     7
100
AcDbCircle
 10
606.25
 20
10.5
 30
0.0
 40
11.0
100
AcDbArc
 50
0.0
 51
90.0
  0
LINE
  5
96D
330
920
100
AcDbEntity
  8
0
 62
     7
100
AcDbLine
 10
764.9815938855827
 20
180.0
 30
0.0
 11
900.0
 21
180.0
 31
0.0
  0
LINE
  5
96E
330
920
100
AcDbEntity
  8
0
 62
     7
100
AcDbLine
 10
770.9028054675109
 20
170.1999999999998
 30
0.0
 11
900.0
 21
170.1999999999998
 31
0.0
  0
ARC
  5
96F
330
920
100
AcDbEntity
  8
0
 62
     7
100
AcDbCircle
 10
764.9815938855827
 20
155.0
 30
0.0
 40
25.0
100
AcDbArc
 50
90.0
 51
140.3718021624741
  0
ARC
  5
970
330
920
100
AcDbEntity
  8
0
 62
     7
100
AcDbCircle
 10
770.9028054675109
 20
140.1999999999998
 30
0.0
 40
30.0
100
AcDbArc
 50
90.0
 51
140.3718021624741
  0
LINE
  5
971
330
920
100
AcDbEntity
  8
0
 62
     7
100
AcDbLine
 10
1171.924591375358
 20
28.87162951484151
 30
0.0
 11
1054.273392223895
 21
170.9450779215312
 31
0.0
  0
LINE
  5
972
330
920
100
AcDbEntity
  8
0
 62
     7
100
AcDbLine
 10
1163.242367045124
 20
25.24518808843367
 30
0.0
 11
1052.203177863862
 21
159.3340935058368
 31
0.0
  0
ARC
  5
973
330
920
100
AcDbEntity
  8
0
 62
     7
100
AcDbCircle
 10
1206.25
 20
-10.5
 30
0.0
 40
11.0
100
AcDbArc
 50
270.0
 51
0.0
  0
LINE
  5
974
330
920
100
AcDbEntity
  8
0
 62
     7
100
AcDbLine
 10
1177.54551735588
 20
15.41432121499565
 30
0.0
 11
1179.886872782266
 21
-7.997553924336898
 31
0.0
  0
LINE
  5
975
330
920
100
AcDbEntity
  8
0
 62
     7
100
AcDbLine
 10
1193.454751808454
 20
6.787101521733347
 30
0.0
 11
1207.257391819075
 21
-5.64085136581707
 31
0.0
  0
ARC
  5
976
330
920
100
AcDbEntity
  8
0
 62
     7
100
AcDbCircle
 10
1207.25
 20
-3.000437081160271
 30
0.0
 40
10.0
100
AcDbArc
 50
0.0
 51
40.53830655010687
  0
LINE
  5
977
330
920
100
AcDbEntity
  8
0
 62
     7
100
AcDbLine
 10
1168.863293025646
 20
11.7878797885869
 30
0.0
 11
1171.201710569621
 21
-11.59461863354044
 31
0.0
  0
LINE
  5
978
330
920
100
AcDbEntity
  8
0
 62
     4
100
AcDbLine
 10
1200.0
 20
10.0
 30
0.0
 11
1200.0
 21
-10.0
 31
0.0
  0
ARC
  5
979
330
920
100
AcDbEntity
  8
0
 62
     7
100
AcDbCircle
 10
1184.862055200268
 20
-7.5
 30
0.0
 40
5.0
100
AcDbArc
 50
185.7109999999986
 51
270.0
  0
ARC
  5
97A
330
920
100
AcDbEntity
  8
0
 62
     7
100
AcDbCircle
 10
1182.147111889218
 20
-10.5
 30
0.0
 40
11.0
100
AcDbArc
 50
185.7109999999986
 51
270.0
  0
LINE
  5
97B
330
920
100
AcDbEntity
  8
0
 62
     7
100
AcDbLine
 10
1205.25
 20
-12.5
 30
0.0
 11
1184.862055200268
 21
-12.5
 31
0.0
  0
LINE
  5
97C
330
920
100
AcDbEntity
  8
0
 62
     7
100
AcDbLine
 10
1206.25
 20
-21.49999999999999
 30
0.0
 11
1182.147111889218
 21
-21.49999999999999
 31
0.0
  0
ARC
  5
97D
330
920
100
AcDbEntity
  8
0
 62
     7
100
AcDbCircle
 10
1205.25
 20
-9.5
 30
0.0
 40
3.0
100
AcDbArc
 50
270.0
 51
0.0
  0
LINE
  5
97E
330
920
100
AcDbEntity
  8
0
 62
     7
100
AcDbLine
 10
1208.25
 20
-7.870285842249359
 30
0.0
 11
1208.25
 21
-9.5
 31
0.0
  0
ARC
  5
97F
330
920
100
AcDbEntity
  8
0
 62
     7
100
AcDbCircle
 10
1205.25
 20
-7.870285842249359
 30
0.0
 40
3.0
100
AcDbArc
 50
0.0
 51
48.00000000001473
  0
LINE
  5
980
330
920
100
AcDbEntity
  8
0
 62
     7
100
AcDbLine
 10
1217.249999999999
 20
-3.000437081160271
 30
0.0
 11
1217.249999999999
 21
-10.5
 31
0.0
  0
ARC
  5
981
330
920
100
AcDbEntity
  8
0
 62
     7
100
AcDbCircle
 10
1152.669605265877
 20
12.92655159331116
 30
0.0
 40
25.0
100
AcDbArc
 50
5.710999999998601
 51
39.62819783752582
  0
ARC
  5
982
330
920
100
AcDbEntity
  8
0
 62
     7
100
AcDbCircle
 10
1143.987380935643
 20
9.300110166903323
 30
0.0
 40
25.0
100
AcDbArc
 50
5.710999999998601
 51
39.62819783752582
  0
ARC
  5
983
330
920
100
AcDbEntity
  8
0
 62
     7
100
AcDbCircle
 10
1199.6502840932
 20
-9.5
 30
0.0
 40
20.0
100
AcDbArc
 50
40.53830655010687
 51
90.0
  0
LINE
  5
984
330
920
100
AcDbEntity
  8
0
 62
     4
100
AcDbLine
 10
1210.0
 20
0.0
 30
0.0
 11
1190.0
 21
0.0
 31
0.0
  0
ARC
  5
985
330
920
100
AcDbEntity
  8
0
 62
     7
100
AcDbCircle
 10
1194.879999999997
 20
8.36999999999989
 30
0.0
 40
2.129999999999999
100
AcDbArc
 50
90.0
 51
228.0000000000244
  0
LINE
  5
986
330
920
100
AcDbEntity
  8
0
 62
     7
100
AcDbLine
 10
1199.6502840932
 20
10.5
 30
0.0
 11
1194.879999999997
 21
10.5
 31
0.0
  0
ARC
  5
987
330
920
100
AcDbEntity
  8
0
 62
     7
100
AcDbCircle
 10
1035.018406114413
 20
155.0
 30
0.0
 40
25.0
100
AcDbArc
 50
39.62819783752582
 51
90.0
  0
ARC
  5
988
330
920
100
AcDbEntity
  8
0
 62
     7
100
AcDbCircle
 10
1029.097194532485
 20
140.1999999999998
 30
0.0
 40
30.0
100
AcDbArc
 50
39.62819783752582
 51
90.0
  0
ENDBLK
  5
922
330
920
100
AcDbEntity
  8
0
100
AcDbBlockEnd
  0
ENDSEC
  0
SECTION
  2
ENTITIES
  0
INSERT
  5
989
330
1F
100
AcDbEntity
  8
0
100
AcDbBlockReference
  2
pu12d
 10
1086.751978590546
 20
1037.010807786489
 30
0.0
  0
VIEWPORT
  5
6A
330
1B
100
AcDbEntity
 67
     1
  8
0
100
AcDbViewport
 10
144.2296600341796
 20
98.97533035278321
 30
0.0
 40
348.3547377345459
 41
222.1517806396484
 68
     1
 69
     1
 12
144.2296600341796
 22
98.97533035278321
 13
0.0
 23
0.0
 14
10.0
 24
10.0
 15
10.0
 25
10.0
 16
0.0
 26
0.0
 36
1.0
 17
0.0
 27
0.0
 37
0.0
 42
50.0
 43
0.0
 44
0.0
 45
222.1517806396484
 50
0.0
 51
0.0
 72
   100
 90
    32800
  1

281
     0
 71
     1
 74
     0
110
0.0
120
0.0
130
0.0
111
1.0
121
0.0
131
0.0
112
0.0
122
1.0
132
0.0
 79
     0
146
0.0
  0
VIEWPORT
  5
6C
330
1B
100
AcDbEntity
 67
     1
  8
0
100
AcDbViewport
 10
144.2296578884124
 20
98.97533607482911
 30
0.0
 40
230.7674526214599
 41
158.3605377197265
 68
     2
 69
     2
 12
471.9925402099685
 22
207.0118385025535
 13
0.0
 23
0.0
 14
10.0
 24
10.0
 15
10.0
 25
10.0
 16
0.0
 26
0.0
 36
1.0
 17
0.0
 27
0.0
 37
0.0
 42
50.0
 43
0.0
 44
0.0
 45
537.2024815614429
 50
0.0
 51
0.0
 72
   100
 90
    32864
  1

281
     0
 71
     1
 74
     0
110
330.2484756222961
120
239.5669321729576
130
0.0
111
1.0
121
0.0
131
0.0
112
0.0
122
1.0
132
0.0
 79
     0
146
0.0
  0
ENDSEC
  0
SECTION
  2
OBJECTS
  0
DICTIONARY
  5
C
330
0
100
AcDbDictionary
281
     1
  3
ACAD_GROUP
350
D
  3
ACAD_LAYOUT
350
1A
  3
ACAD_MLINESTYLE
350
17
  3
ACAD_PLOTSETTINGS
350
19
  3
ACAD_PLOTSTYLENAME
350
E
  3
AcDbVariableDictionary
350
44
  0
DICTIONARY
  5
2B
330
2
100
AcDbDictionary
280
     1
281
     1
  3
ACAD_LAYERFILTERS
360
2C
  0
DICTIONARY
  5
D
102
{ACAD_REACTORS
330
C
102
}
330
C
100
AcDbDictionary
281
     1
  0
DICTIONARY
  5
1A
102
{ACAD_REACTORS
330
C
102
}
330
C
100
AcDbDictionary
281
     1
  3
Layout1
350
1E
  3
Model
350
22
  0
DICTIONARY
  5
17
102
{ACAD_REACTORS
330
C
102
}
330
C
100
AcDbDictionary
281
     1
  3
Standard
350
18
  0
DICTIONARY
  5
19
102
{ACAD_REACTORS
330
C
102
}
330
C
100
AcDbDictionary
281
     1
  0
ACDBDICTIONARYWDFLT
  5
E
102
{ACAD_REACTORS
330
C
102
}
330
C
100
AcDbDictionary
281
     1
  3
Normal
350
F
100
AcDbDictionaryWithDefault
340
F
  0
DICTIONARY
  5
44
102
{ACAD_REACTORS
330
C
102
}
330
C
100
AcDbDictionary
281
     1
  3
DIMASSOC
350
46
  3
HIDETEXT
350
45
  0
DICTIONARY
  5
2C
102
{ACAD_REACTORS
330
2B
102
}
330
2B
100
AcDbDictionary
280
     1
281
     1
  3
GEO
360
2D
  3
RAK
360
2E
  3
RAK&GEO
360
2F
  0
LAYOUT
  5
1E
102
{ACAD_REACTORS
330
1A
102
}
330
1A
100
AcDbPlotSettings
  1

  2
\\AOBSRV1\FIN9
  4
A4
  6

 40
6.011333465576171
 41
4.233341693878173
 42
6.011322021484375
 43
4.23333740234375
 44
209.9733276367187
 45
296.9259948730469
 46
0.0
 47
0.0
 48
0.0
 49
0.0
140
0.0
141
0.0
142
1.0
143
1.0
 70
   688
 72
     1
 73
     1
 74
     5
  7

 75
    16
147
1.0
148
0.0
149
0.0
100
AcDbLayout
  1
Layout1
 70
     1
 71
     1
 10
-4.23333740234375
 20
-6.011333465576171
 11
292.6926574707031
 21
203.9619941711425
 12
0.0
 22
0.0
 32
0.0
 14
28.8459315776825
 24
19.79506721496582
 34
0.0
 15
259.6133841991424
 25
178.1556049346923
 35
0.0
146
0.0
 13
0.0
 23
0.0
 33
0.0
 16
1.0
 26
0.0
 36
0.0
 17
0.0
 27
1.0
 37
0.0
 76
     0
330
1B
331
6A
  0
LAYOUT
  5
22
102
{ACAD_REACTORS
330
1A
102
}
330
1A
100
AcDbPlotSettings
  1

  2
\\AOBSRV1\FIN9
  4

  6

 40
0.0
 41
0.0
 42
0.0
 43
0.0
 44
0.0
 45
0.0
 46
0.0
 47
0.0
 48
0.0
 49
0.0
140
0.0
141
0.0
142
1.0
143
1.0
 70
  1712
 72
     0
 73
     0
 74
     0
  7

 75
     0
147
1.0
148
0.0
149
0.0
100
AcDbLayout
  1
Model
 70
     1
 71
     0
 10
0.0
 20
0.0
 11
12.0
 21
9.0
 12
0.0
 22
0.0
 32
0.0
 14
0.0
 24
0.0
 34
0.0
 15
0.0
 25
0.0
 35
0.0
146
0.0
 13
0.0
 23
0.0
 33
0.0
 16
1.0
 26
0.0
 36
0.0
 17
0.0
 27
1.0
 37
0.0
 76
     0
330
1F
  0
MLINESTYLE
  5
18
102
{ACAD_REACTORS
330
17
102
}
330
17
100
AcDbMlineStyle
  2
STANDARD
 70
     0
  3

 62
   256
 51
90.0
 52
90.0
 71
     2
 49
0.5
 62
   256
  6
BYLAYER
 49
-0.5
 62
   256
  6
BYLAYER
  0
ACDBPLACEHOLDER
  5
F
102
{ACAD_REACTORS
330
E
102
}
330
E
  0
DICTIONARYVAR
  5
46
102
{ACAD_REACTORS
330
44
102
}
330
44
100
DictionaryVariables
280
     0
  1
2
  0
DICTIONARYVAR
  5
45
102
{ACAD_REACTORS
330
44
102
}
330
44
100
DictionaryVariables
280
     0
  1
1
  0
XRECORD
  5
2D
102
{ACAD_REACTORS
330
2C
102
}
330
2C
100
AcDbXrecord
280
     1
  1
GEO
  1
GEO-*
  1
*
  1
*
 70
     0
  1
*
  1
*
  0
XRECORD
  5
2E
102
{ACAD_REACTORS
330
2C
102
}
330
2C
100
AcDbXrecord
280
     1
  1
RAK
  1
RAK-*
  1
*
  1
*
 70
     0
  1
*
  1
*
  0
XRECORD
  5
2F
102
{ACAD_REACTORS
330
2C
102
}
330
2C
100
AcDbXrecord
280
     1
  1
RAK&GEO
  1
RAK-*,GEO-*
  1
*
  1
*
 70
     0
  1
*
  1
*
  0
ENDSEC
  0
EOF
