  0
SECTION
  2
HEADER
  9
$ACADVER
  1
AC1015
  9
$ACADMAINTVER
 70
    14
  9
$DWGCODEPAGE
  3
ANSI_1252
  9
$INSBASE
 10
0.0
 20
0.0
 30
0.0
  9
$EXTMIN
 10
925.8517915750937
 20
-626.9796645136461
 30
-0.000000000367276
  9
$EXTMAX
 10
1776.368745048886
 20
-322.2966936004252
 30
-0.0000000003672003
  9
$LIMMIN
 10
0.0
 20
0.0
  9
$LIMMAX
 10
420.0
 20
297.0
  9
$ORTHOMODE
 70
     0
  9
$REGENMODE
 70
     1
  9
$FILLMODE
 70
     1
  9
$QTEXTMODE
 70
     0
  9
$MIRRTEXT
 70
     1
  9
$LTSCALE
 40
1.0
  9
$ATTMODE
 70
     1
  9
$TEXTSIZE
 40
2.5
  9
$TRACEWID
 40
1.0
  9
$TEXTSTYLE
  7
Standard
  9
$CLAYER
  8
PAU2780
  9
$CELTYPE
  6
ByLayer
  9
$CECOLOR
 62
   256
  9
$CELTSCALE
 40
1.0
  9
$DISPSILH
 70
     0
  9
$DIMSCALE
 40
1.0
  9
$DIMASZ
 40
2.5
  9
$DIMEXO
 40
0.625
  9
$DIMDLI
 40
3.75
  9
$DIMRND
 40
0.0
  9
$DIMDLE
 40
0.0
  9
$DIMEXE
 40
1.25
  9
$DIMTP
 40
0.0
  9
$DIMTM
 40
0.0
  9
$DIMTXT
 40
2.5
  9
$DIMCEN
 40
2.5
  9
$DIMTSZ
 40
0.0
  9
$DIMTOL
 70
     0
  9
$DIMLIM
 70
     0
  9
$DIMTIH
 70
     0
  9
$DIMTOH
 70
     0
  9
$DIMSE1
 70
     0
  9
$DIMSE2
 70
     0
  9
$DIMTAD
 70
     1
  9
$DIMZIN
 70
     8
  9
$DIMBLK
  1

  9
$DIMASO
 70
     1
  9
$DIMSHO
 70
     1
  9
$DIMPOST
  1

  9
$DIMAPOST
  1

  9
$DIMALT
 70
     0
  9
$DIMALTD
 70
     3
  9
$DIMALTF
 40
0.03937007874016
  9
$DIMLFAC
 40
1.0
  9
$DIMTOFL
 70
     1
  9
$DIMTVP
 40
0.0
  9
$DIMTIX
 70
     0
  9
$DIMSOXD
 70
     0
  9
$DIMSAH
 70
     0
  9
$DIMBLK1
  1

  9
$DIMBLK2
  1

  9
$DIMSTYLE
  2
ISO-25
  9
$DIMCLRD
 70
     0
  9
$DIMCLRE
 70
     0
  9
$DIMCLRT
 70
     0
  9
$DIMTFAC
 40
1.0
  9
$DIMGAP
 40
0.625
  9
$DIMJUST
 70
     0
  9
$DIMSD1
 70
     0
  9
$DIMSD2
 70
     0
  9
$DIMTOLJ
 70
     0
  9
$DIMTZIN
 70
     8
  9
$DIMALTZ
 70
     0
  9
$DIMALTTZ
 70
     0
  9
$DIMUPT
 70
     0
  9
$DIMDEC
 70
     2
  9
$DIMTDEC
 70
     2
  9
$DIMALTU
 70
     2
  9
$DIMALTTD
 70
     3
  9
$DIMTXSTY
  7
Standard
  9
$DIMAUNIT
 70
     0
  9
$DIMADEC
 70
     0
  9
$DIMALTRND
 40
0.0
  9
$DIMAZIN
 70
     0
  9
$DIMDSEP
 70
    44
  9
$DIMATFIT
 70
     3
  9
$DIMFRAC
 70
     0
  9
$DIMLDRBLK
  1

  9
$DIMLUNIT
 70
     2
  9
$DIMLWD
 70
    -2
  9
$DIMLWE
 70
    -2
  9
$DIMTMOVE
 70
     0
  9
$LUNITS
 70
     2
  9
$LUPREC
 70
     4
  9
$SKETCHINC
 40
1.0
  9
$FILLETRAD
 40
10.0
  9
$AUNITS
 70
     0
  9
$AUPREC
 70
     0
  9
$MENU
  1
.
  9
$ELEVATION
 40
0.0
  9
$PELEVATION
 40
0.0
  9
$THICKNESS
 40
0.0
  9
$LIMCHECK
 70
     0
  9
$CHAMFERA
 40
10.0
  9
$CHAMFERB
 40
10.0
  9
$CHAMFERC
 40
20.0
  9
$CHAMFERD
 40
0.0
  9
$SKPOLY
 70
     0
  9
$TDCREATE
 40
2452984.401453715
  9
$TDUCREATE
 40
2452984.359787048
  9
$TDUPDATE
 40
2452989.717942245
  9
$TDUUPDATE
 40
2452989.676275578
  9
$TDINDWG
 40
0.0307577778
  9
$TDUSRTIMER
 40
0.0307575926
  9
$USRTIMER
 70
     1
  9
$ANGBASE
 50
0.0
  9
$ANGDIR
 70
     0
  9
$PDMODE
 70
     0
  9
$PDSIZE
 40
0.0
  9
$PLINEWID
 40
0.0
  9
$SPLFRAME
 70
     0
  9
$SPLINETYPE
 70
     6
  9
$SPLINESEGS
 70
     8
  9
$HANDSEED
  5
8B9
  9
$SURFTAB1
 70
     6
  9
$SURFTAB2
 70
     6
  9
$SURFTYPE
 70
     6
  9
$SURFU
 70
     6
  9
$SURFV
 70
     6
  9
$UCSBASE
  2

  9
$UCSNAME
  2

  9
$UCSORG
 10
943.8517918426246
 20
-598.8881789782405
 30
-0.0000000003672348
  9
$UCSXDIR
 10
1.0
 20
0.0
 30
0.0
  9
$UCSYDIR
 10
0.0
 20
1.0
 30
0.0
  9
$UCSORTHOREF
  2

  9
$UCSORTHOVIEW
 70
     0
  9
$UCSORGTOP
 10
0.0
 20
0.0
 30
0.0
  9
$UCSORGBOTTOM
 10
0.0
 20
0.0
 30
0.0
  9
$UCSORGLEFT
 10
0.0
 20
0.0
 30
0.0
  9
$UCSORGRIGHT
 10
0.0
 20
0.0
 30
0.0
  9
$UCSORGFRONT
 10
0.0
 20
0.0
 30
0.0
  9
$UCSORGBACK
 10
0.0
 20
0.0
 30
0.0
  9
$PUCSBASE
  2

  9
$PUCSNAME
  2

  9
$PUCSORG
 10
0.0
 20
0.0
 30
0.0
  9
$PUCSXDIR
 10
1.0
 20
0.0
 30
0.0
  9
$PUCSYDIR
 10
0.0
 20
1.0
 30
0.0
  9
$PUCSORTHOREF
  2

  9
$PUCSORTHOVIEW
 70
     0
  9
$PUCSORGTOP
 10
0.0
 20
0.0
 30
0.0
  9
$PUCSORGBOTTOM
 10
0.0
 20
0.0
 30
0.0
  9
$PUCSORGLEFT
 10
0.0
 20
0.0
 30
0.0
  9
$PUCSORGRIGHT
 10
0.0
 20
0.0
 30
0.0
  9
$PUCSORGFRONT
 10
0.0
 20
0.0
 30
0.0
  9
$PUCSORGBACK
 10
0.0
 20
0.0
 30
0.0
  9
$USERI1
 70
     0
  9
$USERI2
 70
     0
  9
$USERI3
 70
     0
  9
$USERI4
 70
     0
  9
$USERI5
 70
     0
  9
$USERR1
 40
0.0
  9
$USERR2
 40
0.0
  9
$USERR3
 40
0.0
  9
$USERR4
 40
0.0
  9
$USERR5
 40
0.0
  9
$WORLDVIEW
 70
     1
  9
$SHADEDGE
 70
     3
  9
$SHADEDIF
 70
    70
  9
$TILEMODE
 70
     1
  9
$MAXACTVP
 70
    64
  9
$PINSBASE
 10
0.0
 20
0.0
 30
0.0
  9
$PLIMCHECK
 70
     0
  9
$PEXTMIN
 10
28.8459315776825
 20
19.79506721496582
 30
0.0
  9
$PEXTMAX
 10
259.6133841991424
 20
178.1556049346923
 30
0.0
  9
$PLIMMIN
 10
-4.23333740234375
 20
-6.011333465576171
  9
$PLIMMAX
 10
292.6926574707031
 20
203.9619941711425
  9
$UNITMODE
 70
     0
  9
$VISRETAIN
 70
     1
  9
$PLINEGEN
 70
     0
  9
$PSLTSCALE
 70
     1
  9
$TREEDEPTH
 70
  3020
  9
$CMLSTYLE
  2
Standard
  9
$CMLJUST
 70
     0
  9
$CMLSCALE
 40
20.0
  9
$PROXYGRAPHICS
 70
     1
  9
$MEASUREMENT
 70
     1
  9
$CELWEIGHT
370
    -1
  9
$ENDCAPS
280
     0
  9
$JOINSTYLE
280
     0
  9
$LWDISPLAY
290
     0
  9
$INSUNITS
 70
     4
  9
$HYPERLINKBASE
  1

  9
$STYLESHEET
  1

  9
$XEDIT
290
     1
  9
$CEPSNTYPE
380
     0
  9
$PSTYLEMODE
290
     1
  9
$FINGERPRINTGUID
  2
{1F0C9108-7A24-43FE-92C0-F61D6143634A}
  9
$VERSIONGUID
  2
{7A50EDE3-4B00-4E90-BAEB-A02F2D4CDF1A}
  9
$EXTNAMES
290
     1
  9
$PSVPSCALE
 40
0.0
  9
$OLESTARTUP
290
     0
  0
ENDSEC
  0
SECTION
  2
CLASSES
  0
CLASS
  1
ACDBDICTIONARYWDFLT
  2
AcDbDictionaryWithDefault
  3
AutoCAD 2000
 90
        0
280
     0
281
     0
  0
CLASS
  1
ACDBPLACEHOLDER
  2
AcDbPlaceHolder
  3
AutoCAD 2000
 90
        0
280
     0
281
     0
  0
CLASS
  1
LAYOUT
  2
AcDbLayout
  3
AutoCAD 2000
 90
        0
280
     0
281
     0
  0
CLASS
  1
DICTIONARYVAR
  2
AcDbDictionaryVar
  3
AutoCAD 2000
 90
        0
280
     0
281
     0
  0
ENDSEC
  0
SECTION
  2
TABLES
  0
TABLE
  2
VPORT
  5
8
330
0
100
AcDbSymbolTable
 70
     2
  0
VPORT
  5
8B8
330
8
100
AcDbSymbolTableRecord
100
AcDbViewportTableRecord
  2
*Active
 70
     0
 10
0.0
 20
0.0
 11
1.0
 21
1.0
 12
1353.272157753398
 22
-474.6349626358037
 13
0.0
 23
0.0
 14
10.0
 24
10.0
 15
10.0
 25
10.0
 16
0.0
 26
0.0
 36
1.0
 17
0.0
 27
0.0
 37
0.0
 40
572.974825483666
 41
1.5
 42
50.0
 43
0.0
 44
0.0
 50
0.0
 51
0.0
 71
     0
 72
   100
 73
     1
 74
     3
 75
     0
 76
     0
 77
     0
 78
     0
281
     0
 65
     1
110
943.8517918426246
120
-598.8881789782405
130
-0.0000000003672348
111
1.0
121
0.0
131
0.0
112
0.0
122
1.0
132
0.0
 79
     0
146
0.0
  0
ENDTAB
  0
TABLE
  2
LTYPE
  5
5
330
0
100
AcDbSymbolTable
 70
     1
  0
LTYPE
  5
14
330
5
100
AcDbSymbolTableRecord
100
AcDbLinetypeTableRecord
  2
ByBlock
 70
     0
  3

 72
    65
 73
     0
 40
0.0
  0
LTYPE
  5
15
330
5
100
AcDbSymbolTableRecord
100
AcDbLinetypeTableRecord
  2
ByLayer
 70
     0
  3

 72
    65
 73
     0
 40
0.0
  0
LTYPE
  5
16
330
5
100
AcDbSymbolTableRecord
100
AcDbLinetypeTableRecord
  2
Continuous
 70
     0
  3
Solid line
 72
    65
 73
     0
 40
0.0
  0
ENDTAB
  0
TABLE
  2
LAYER
  5
2
102
{ACAD_XDICTIONARY
360
2B
102
}
330
0
100
AcDbSymbolTable
 70
     2
  0
LAYER
  5
10
330
2
100
AcDbSymbolTableRecord
100
AcDbLayerTableRecord
  2
0
 70
     0
 62
     7
  6
Continuous
370
    -3
390
F
  0
LAYER
  5
B3
330
2
100
AcDbSymbolTableRecord
100
AcDbLayerTableRecord
  2
PAU2780
 70
     0
 62
     7
  6
Continuous
370
    -3
390
F
  0
ENDTAB
  0
TABLE
  2
STYLE
  5
3
330
0
100
AcDbSymbolTable
 70
     1
  0
STYLE
  5
11
330
3
100
AcDbSymbolTableRecord
100
AcDbTextStyleTableRecord
  2
Standard
 70
     0
 40
0.0
 41
1.0
 50
0.0
 71
     0
 42
2.5
  3
txt
  4

  0
ENDTAB
  0
TABLE
  2
VIEW
  5
6
330
0
100
AcDbSymbolTable
 70
     0
  0
ENDTAB
  0
TABLE
  2
UCS
  5
7
330
0
100
AcDbSymbolTable
 70
     0
  0
ENDTAB
  0
TABLE
  2
APPID
  5
9
330
0
100
AcDbSymbolTable
 70
     1
  0
APPID
  5
12
330
9
100
AcDbSymbolTableRecord
100
AcDbRegAppTableRecord
  2
ACAD
 70
     0
  0
ENDTAB
  0
TABLE
  2
DIMSTYLE
  5
A
330
0
100
AcDbSymbolTable
 70
     1
100
AcDbDimStyleTable
 71
     0
  0
DIMSTYLE
105
27
330
A
100
AcDbSymbolTableRecord
100
AcDbDimStyleTableRecord
  2
ISO-25
 70
     0
 41
2.5
 42
0.625
 43
3.75
 44
1.25
 73
     0
 74
     0
 77
     1
 78
     8
140
2.5
141
2.5
143
0.03937007874016
147
0.625
171
     3
172
     1
271
     2
272
     2
274
     3
278
    44
283
     0
284
     8
340
11
  0
ENDTAB
  0
TABLE
  2
BLOCK_RECORD
  5
1
330
0
100
AcDbSymbolTable
 70
     1
  0
BLOCK_RECORD
  5
1F
330
1
100
AcDbSymbolTableRecord
100
AcDbBlockTableRecord
  2
*Model_Space
340
22
  0
BLOCK_RECORD
  5
1B
330
1
100
AcDbSymbolTableRecord
100
AcDbBlockTableRecord
  2
*Paper_Space
340
1E
  0
BLOCK_RECORD
  5
875
330
1
100
AcDbSymbolTableRecord
100
AcDbBlockTableRecord
  2
pau2780
340
0
310
2800000020000000200000000100080000000000000400000000000000000000000000000000000000000000000080000080000000808000800000008000800080800000C0C0C000C0DCC000F0CAA6000020400000206000002080000020A0000020C0000020E00000400000004020000040400000406000004080000040A0
310
000040C0000040E00000600000006020000060400000606000006080000060A0000060C0000060E00000800000008020000080400000806000008080000080A0000080C0000080E00000A0000000A0200000A0400000A0600000A0800000A0A00000A0C00000A0E00000C0000000C0200000C0400000C0600000C0800000C0
310
A00000C0C00000C0E00000E0000000E0200000E0400000E0600000E0800000E0A00000E0C00000E0E00040000000400020004000400040006000400080004000A0004000C0004000E00040200000402020004020400040206000402080004020A0004020C0004020E000404000004040200040404000404060004040800040
310
40A0004040C0004040E00040600000406020004060400040606000406080004060A0004060C0004060E00040800000408020004080400040806000408080004080A0004080C0004080E00040A0000040A0200040A0400040A0600040A0800040A0A00040A0C00040A0E00040C0000040C0200040C0400040C0600040C08000
310
40C0A00040C0C00040C0E00040E0000040E0200040E0400040E0600040E0800040E0A00040E0C00040E0E00080000000800020008000400080006000800080008000A0008000C0008000E00080200000802020008020400080206000802080008020A0008020C0008020E00080400000804020008040400080406000804080
310
008040A0008040C0008040E00080600000806020008060400080606000806080008060A0008060C0008060E00080800000808020008080400080806000808080008080A0008080C0008080E00080A0000080A0200080A0400080A0600080A0800080A0A00080A0C00080A0E00080C0000080C0200080C0400080C0600080C0
310
800080C0A00080C0C00080C0E00080E0000080E0200080E0400080E0600080E0800080E0A00080E0C00080E0E000C0000000C0002000C0004000C0006000C0008000C000A000C000C000C000E000C0200000C0202000C0204000C0206000C0208000C020A000C020C000C020E000C0400000C0402000C0404000C0406000C0
310
408000C040A000C040C000C040E000C0600000C0602000C0604000C0606000C0608000C060A000C060C000C060E000C0800000C0802000C0804000C0806000C0808000C080A000C080C000C080E000C0A00000C0A02000C0A04000C0A06000C0A08000C0A0A000C0A0C000C0A0E000C0C00000C0C02000C0C04000C0C06000
310
C0C08000C0C0A000F0FBFF00A4A0A000808080000000FF0000FF000000FFFF00FF000000FF00FF00FFFF0000FFFFFF0000000000000000000000000000000000000000000000000000000000000000000000000000000000000000000000000000000000000000000000000000000000000000000000000000000000000000
310
00000000000000000000000000000000000000000000000000000000000000000000000000000000000000000000000000000000000000000000000000000000000000000000000000000000000000000000000000000000000000000000000000000000000000000000000000000000000000000000000000000000000000
310
00000000000000000000000000000000000000000000000000000000000000000000000000000000000000000000000000000000000000000000000000000000000000000000000000000000000000000000000000000000000000000000000000000000000000000000000000000000000000000000000000000000000000
310
0000000000000000000000000000000000000000FFFEFFFFFF00000000000000000000000000000000000000FFFFFFFEFE00000000FFFF0000FF0000000000000000000000000000000000FF000000FFFFFF00000000000000FF0000000000000000000000000000000000FF0000000000000000000000000000FF00000000
310
0000000000000000000000FF000000000000000000000000000000FF000000000000000000000000000000FF00000000000000000000000000000000FF00000000000000000000000000FF0000000000000000000000000000000000FF00000000000000000000000000FF000000000000000000000000000000000000FF00
310
00000000000000000000FF00000000000000000000000000000000000000FF0000000000000000000000FF0000000000000000000000000000000000000000FFFFFFFFFFFFFFFFFFFFFF0000000000000000000000000000000000000000000000000000000000000000000000000000000000000000000000000000000000
310
00000000000000000000000000000000000000000000000000000000000000000000000000000000000000000000000000000000000000000000000000000000000000000000000000000000000000000000000000000000000000000000000000000000000000000000000000000000000000000000000000000000000000
310
00000000000000000000000000000000000000000000000000000000000000000000000000000000000000000000000000000000000000000000000000000000000000000000000000000000000000000000000000000000000000000000000000000000000000000000000000000000000000000000000000000000000000
310
0000000000000000000000000000000000000000000000000000000000000000000000000000000000000000000000000000000000000000
102
{BLKREFS
331
8A0
102
}
1001
ACAD
1000
DesignCenter Data
1002
{
1070
     1
1070
     4
1002
}
  0
ENDTAB
  0
ENDSEC
  0
SECTION
  2
BLOCKS
  0
BLOCK
  5
20
330
1F
100
AcDbEntity
  8
0
100
AcDbBlockBegin
  2
*Model_Space
 70
     0
 10
0.0
 20
0.0
 30
0.0
  3
*Model_Space
  1

  0
ENDBLK
  5
21
330
1F
100
AcDbEntity
  8
0
100
AcDbBlockEnd
  0
BLOCK
  5
1C
330
1B
100
AcDbEntity
 67
     1
  8
0
100
AcDbBlockBegin
  2
*Paper_Space
 70
     0
 10
0.0
 20
0.0
 30
0.0
  3
*Paper_Space
  1

  0
ENDBLK
  5
1D
330
1B
100
AcDbEntity
 67
     1
  8
0
100
AcDbBlockEnd
  0
BLOCK
  5
876
330
875
100
AcDbEntity
  8
0
100
AcDbBlockBegin
  2
pau2780
 70
     0
 10
0.0
 20
0.0
 30
0.0
  3
pau2780
  1

  0
LINE
  5
878
330
875
100
AcDbEntity
  8
0
 62
     7
100
AcDbLine
 10
686.5143768466005
 20
-7.695263328203509
 30
-0.0000000000000206
 11
533.3155162900875
 21
252.3847921613705
 31
-0.0000000000000207
  0
LINE
  5
879
330
875
100
AcDbEntity
  8
0
 62
     7
100
AcDbLine
 10
237.5962315875586
 20
252.3847837400553
 30
0.0000000000000309
 11
84.39723737070016
 21
-7.695498659750228
 31
0.0000000000000336
  0
LINE
  5
87A
330
875
100
AcDbEntity
  8
0
 62
     7
100
AcDbLine
 10
77.35865543363615
 20
-3.884768292895387
 30
0.0000000000000157
 11
230.5576405495157
 21
256.1954986564905
 31
0.0000000000000344
  0
LINE
  5
87B
330
875
100
AcDbEntity
  8
0
 62
     7
100
AcDbLine
 10
540.3541122886672
 20
256.1954986564851
 30
0.0
 11
693.552949945486
 21
-3.884517957119896
 31
-0.0000000000000412
  0
ARC
  5
87C
330
875
100
AcDbEntity
  8
0
 62
     7
100
AcDbCircle
 10
55.72400150303292
 20
8.858999999969455
 30
0.0000000000000157
 40
33.10899999997129
100
AcDbArc
 50
269.9999989043893
 51
330.000002678151
  0
ARC
  5
87D
330
875
100
AcDbEntity
  8
0
 62
     7
100
AcDbCircle
 10
-0.0000002675296855
 20
-6.25
 30
0.0000000000000191
 40
18.0000000000012
100
AcDbArc
 50
84.99999978826521
 51
270.0000008515719
  0
LINE
  5
87E
330
875
100
AcDbEntity
  8
0
 62
     7
100
AcDbLine
 10
55.72400086992274
 20
-24.25000000000181
 30
0.0000000000000157
 11
0.0
 21
-24.25
 31
0.0000000000000191
  0
LINE
  5
87F
330
875
100
AcDbEntity
  8
0
 62
     7
100
AcDbLine
 10
-0.0000006645641406
 20
-16.25
 30
0.0000000000000191
 11
55.72400116480276
 21
-16.25
 31
0.0000000000000157
  0
ARC
  5
880
330
875
100
AcDbEntity
  8
0
 62
     7
100
AcDbCircle
 10
-0.0000002675296855
 20
-6.25
 30
0.0000000000000191
 40
10.00000000000049
100
AcDbArc
 50
85.00000104392935
 51
269.9999977251614
  0
LINE
  5
881
330
875
100
AcDbEntity
  8
0
  6
Continuous
 62
     4
100
AcDbLine
 10
0.0
 20
10.0
 30
0.0
 11
0.0
 21
-10.0
 31
0.0
  0
LINE
  5
882
330
875
100
AcDbEntity
  8
0
  6
Continuous
 62
     4
100
AcDbLine
 10
10.0
 20
0.0
 30
0.0000000000000179
 11
-10.0
 21
0.0
 31
0.0000000000000184
  0
LINE
  5
883
330
875
100
AcDbEntity
  8
0
 62
     7
100
AcDbLine
 10
17.50791827140346
 20
10.28701268169061
 30
0.0000000000000191
 11
16.81067232941859
 21
2.317455096950652
 31
0.0000000000000191
  0
LINE
  5
884
330
875
100
AcDbEntity
  8
0
 62
     7
100
AcDbLine
 10
16.81067232941859
 20
2.317455096950652
 30
0.0000000000000191
 11
0.8715569784399121
 21
3.711946996800179
 31
0.0000000000000191
  0
LINE
  5
885
330
875
100
AcDbEntity
  8
0
 62
     7
100
AcDbLine
 10
1.568803168192971
 20
11.68150455985596
 30
0.0000000000000191
 11
17.50791827140346
 21
10.28701268169061
 31
0.0000000000000191
  0
ARC
  5
886
330
875
100
AcDbEntity
  8
0
 62
     7
100
AcDbCircle
 10
55.72400150303292
 20
8.859000000000378
 30
0.0000000000000157
 40
25.1090000000011
100
AcDbArc
 50
269.9999992281957
 51
329.5000330053479
  0
ARC
  5
887
330
875
100
AcDbEntity
  8
0
 62
     7
100
AcDbCircle
 10
803.6656834803288
 20
-22.24976467403939
 30
-0.0000000000000201
 40
38.5000000142836
100
AcDbArc
 50
90.0
 51
155.0000000000152
  0
ARC
  5
888
330
875
100
AcDbEntity
  8
0
 62
     7
100
AcDbCircle
 10
814.5169532062645
 20
6.250235329500355
 30
-0.0000000000000202
 40
17.999999999997
100
AcDbArc
 50
264.9999979803202
 51
90.00000117593197
  0
ARC
  5
889
330
875
100
AcDbEntity
  8
0
 62
     7
100
AcDbCircle
 10
803.6656834662208
 20
-22.24976467049964
 30
-0.0000000000000193
 40
46.4999999999995
100
AcDbArc
 50
90.0
 51
155.0000000000297
  0
LINE
  5
88A
330
875
100
AcDbEntity
  8
0
 62
     7
100
AcDbLine
 10
747.5116130537062
 20
-24.24976467051056
 30
-0.0000000000000222
 11
715.1876133485784
 21
-24.24976467051056
 31
-0.0000000000000206
  0
LINE
  5
88B
330
875
100
AcDbEntity
  8
0
 62
     7
100
AcDbLine
 10
715.1876130536984
 20
-16.2497646705051
 30
-0.0000000000000206
 11
747.5116130537062
 21
-16.24976467051055
 31
-0.0000000000000202
  0
ARC
  5
88C
330
875
100
AcDbEntity
  8
0
 62
     7
100
AcDbCircle
 10
715.1876127154755
 20
8.859235329480725
 30
-0.0000000000000206
 40
33.108999999991
100
AcDbArc
 50
209.9999973177486
 51
270.0000010955975
  0
ARC
  5
88D
330
875
100
AcDbEntity
  8
0
 62
     7
100
AcDbCircle
 10
715.1876127154755
 20
8.859235329509829
 30
-0.0000000000000206
 40
25.1090000000158
100
AcDbArc
 50
210.4999272530143
 51
270.0000007717847
  0
ARC
  5
88E
330
875
100
AcDbEntity
  8
0
 62
     7
100
AcDbCircle
 10
747.5116130537062
 20
-4.249764670510558
 30
-0.0000000000000222
 40
20.00000000000099
100
AcDbArc
 50
270.0
 51
335.0000000000356
  0
LINE
  5
88F
330
875
100
AcDbEntity
  8
0
 62
     7
100
AcDbLine
 10
758.3873064981526
 20
-9.321183811394803
 30
-0.0000000000000215
 11
761.5223713690065
 21
-2.59801549957956
 31
-0.0000000000000222
  0
ARC
  5
890
330
875
100
AcDbEntity
  8
0
 62
     7
100
AcDbCircle
 10
747.5116130537062
 20
-4.249764670510558
 30
-0.0000000000000215
 40
12.0000000000009
100
AcDbArc
 50
270.0
 51
335.0000000000297
  0
LINE
  5
891
330
875
100
AcDbEntity
  8
0
 62
     7
100
AcDbLine
 10
768.7728336664658
 20
-5.978961590994003
 30
-0.0000000000000201
 11
765.6377687944405
 21
-12.70212990531035
 31
-0.0000000000000227
  0
ARC
  5
892
330
875
100
AcDbEntity
  8
0
 62
     7
100
AcDbCircle
 10
814.5169532080762
 20
6.250235350140428
 30
-0.0000000000000202
 40
10.0000000207156
100
AcDbArc
 50
265.0000031368952
 51
90.00000543755687
  0
LINE
  5
893
330
875
100
AcDbEntity
  8
0
  6
Continuous
 62
     4
100
AcDbLine
 10
804.0
 20
10.0
 30
0.0
 11
804.0
 21
-10.0
 31
0.0
  0
LINE
  5
894
330
875
100
AcDbEntity
  8
0
 62
     7
100
AcDbLine
 10
797.7062806093381
 20
-2.317219767450296
 30
-0.0000000000000202
 11
813.645396324202
 21
-3.711711699130319
 31
-0.0000000000000202
  0
LINE
  5
895
330
875
100
AcDbEntity
  8
0
 62
     7
100
AcDbLine
 10
812.9481492047197
 20
-11.68126918084635
 30
-0.0000000000000202
 11
797.0090346673605
 21
-10.28677735217934
 31
-0.0000000000000202
  0
LINE
  5
896
330
875
100
AcDbEntity
  8
0
 62
     7
100
AcDbLine
 10
797.0090346673605
 20
-10.28677735217934
 30
-0.0000000000000202
 11
797.7062806093381
 21
-2.317219767450296
 31
-0.0000000000000202
  0
LINE
  5
897
330
875
100
AcDbEntity
  8
0
 62
     7
100
AcDbLine
 10
814.5169522590441
 20
16.25023537085508
 30
-0.0000000000000202
 11
803.6656834803288
 21
16.25023534023966
 31
-0.0000000000000202
  0
LINE
  5
898
330
875
100
AcDbEntity
  8
0
  6
Continuous
 62
     4
100
AcDbLine
 10
813.6656834662208
 20
0.0002353294894419
 30
-0.0000000000000219
 11
793.6656834662207
 21
0.0002353294894419
 31
-0.0000000000000216
  0
LINE
  5
899
330
875
100
AcDbEntity
  8
0
 62
     7
100
AcDbLine
 10
803.6656834662208
 20
24.25023532950035
 30
-0.0000000000000193
 11
814.516952836835
 21
24.25023532950035
 31
-0.0000000000000202
  0
LINE
  5
89A
330
875
100
AcDbEntity
  8
0
 62
     7
100
AcDbLine
 10
511.6808764190864
 20
264.7499999999999
 30
0.0
 11
259.2308764190893
 21
264.7499999999999
 31
0.0000000000000309
  0
LINE
  5
89B
330
875
100
AcDbEntity
  8
0
 62
     7
100
AcDbLine
 10
259.2308764190893
 20
272.75
 30
0.0000000000000309
 11
511.6808764190864
 21
272.75
 31
0.0
  0
ARC
  5
89C
330
875
100
AcDbEntity
  8
0
 62
     7
100
AcDbCircle
 10
259.2308764190893
 20
239.6409999999996
 30
0.0000000000000309
 40
33.1090000000001
100
AcDbArc
 50
90.0
 51
150.0000026846412
  0
ARC
  5
89D
330
875
100
AcDbEntity
  8
0
 62
     7
100
AcDbCircle
 10
259.2308764190893
 20
239.6409999999996
 30
0.0000000000000309
 40
25.1089999999983
100
AcDbArc
 50
90.0
 51
149.4999920961026
  0
ARC
  5
89E
330
875
100
AcDbEntity
  8
0
 62
     7
100
AcDbCircle
 10
511.6808764190864
 20
239.6409999999905
 30
0.0
 40
33.1090000000077
100
AcDbArc
 50
29.99999731535876
 51
90.0
  0
ARC
  5
89F
330
875
100
AcDbEntity
  8
0
 62
     7
100
AcDbCircle
 10
511.6808764190864
 20
239.6409999999996
 30
0.0
 40
25.1089999999993
100
AcDbArc
 50
30.5000302063488
 51
90.0
  0
ENDBLK
  5
877
330
875
100
AcDbEntity
  8
0
100
AcDbBlockEnd
  0
ENDSEC
  0
SECTION
  2
ENTITIES
  0
INSERT
  5
8A0
330
1F
100
AcDbEntity
  8
PAU2780
100
AcDbBlockReference
  2
pau2780
 10
943.8517918426246
 20
-598.8881789782405
 30
-0.0000000003672348
  0
VIEWPORT
  5
6A
330
1B
100
AcDbEntity
 67
     1
  8
0
100
AcDbViewport
 10
144.2296600341796
 20
98.97533035278321
 30
0.0
 40
348.3547377345459
 41
222.1517806396484
 68
     1
 69
     1
 12
144.2296600341796
 22
98.97533035278321
 13
0.0
 23
0.0
 14
10.0
 24
10.0
 15
10.0
 25
10.0
 16
0.0
 26
0.0
 36
1.0
 17
0.0
 27
0.0
 37
0.0
 42
50.0
 43
0.0
 44
0.0
 45
222.1517806396484
 50
0.0
 51
0.0
 72
   100
 90
    32800
  1

281
     0
 71
     1
 74
     0
110
0.0
120
0.0
130
0.0
111
1.0
121
0.0
131
0.0
112
0.0
122
1.0
132
0.0
 79
     0
146
0.0
  0
VIEWPORT
  5
6C
330
1B
100
AcDbEntity
 67
     1
  8
0
100
AcDbViewport
 10
144.2296578884124
 20
98.97533607482911
 30
0.0
 40
230.7674526214599
 41
158.3605377197265
 68
     2
 69
     2
 12
471.9925402099685
 22
207.0118385025535
 13
0.0
 23
0.0
 14
10.0
 24
10.0
 15
10.0
 25
10.0
 16
0.0
 26
0.0
 36
1.0
 17
0.0
 27
0.0
 37
0.0
 42
50.0
 43
0.0
 44
0.0
 45
537.2024815614429
 50
0.0
 51
0.0
 72
   100
 90
    32864
  1

281
     0
 71
     1
 74
     0
110
330.2484756222961
120
239.5669321729576
130
0.0
111
1.0
121
0.0
131
0.0
112
0.0
122
1.0
132
0.0
 79
     0
146
0.0
  0
ENDSEC
  0
SECTION
  2
OBJECTS
  0
DICTIONARY
  5
C
330
0
100
AcDbDictionary
281
     1
  3
ACAD_GROUP
350
D
  3
ACAD_LAYOUT
350
1A
  3
ACAD_MLINESTYLE
350
17
  3
ACAD_PLOTSETTINGS
350
19
  3
ACAD_PLOTSTYLENAME
350
E
  3
AcDbVariableDictionary
350
44
  0
DICTIONARY
  5
2B
330
2
100
AcDbDictionary
280
     1
281
     1
  3
ACAD_LAYERFILTERS
360
2C
  0
DICTIONARY
  5
D
102
{ACAD_REACTORS
330
C
102
}
330
C
100
AcDbDictionary
281
     1
  0
DICTIONARY
  5
1A
102
{ACAD_REACTORS
330
C
102
}
330
C
100
AcDbDictionary
281
     1
  3
Layout1
350
1E
  3
Model
350
22
  0
DICTIONARY
  5
17
102
{ACAD_REACTORS
330
C
102
}
330
C
100
AcDbDictionary
281
     1
  3
Standard
350
18
  0
DICTIONARY
  5
19
102
{ACAD_REACTORS
330
C
102
}
330
C
100
AcDbDictionary
281
     1
  0
ACDBDICTIONARYWDFLT
  5
E
102
{ACAD_REACTORS
330
C
102
}
330
C
100
AcDbDictionary
281
     1
  3
Normal
350
F
100
AcDbDictionaryWithDefault
340
F
  0
DICTIONARY
  5
44
102
{ACAD_REACTORS
330
C
102
}
330
C
100
AcDbDictionary
281
     1
  3
DIMASSOC
350
46
  3
HIDETEXT
350
45
  0
DICTIONARY
  5
2C
102
{ACAD_REACTORS
330
2B
102
}
330
2B
100
AcDbDictionary
280
     1
281
     1
  3
GEO
360
2D
  3
RAK
360
2E
  3
RAK&GEO
360
2F
  0
LAYOUT
  5
1E
102
{ACAD_REACTORS
330
1A
102
}
330
1A
100
AcDbPlotSettings
  1

  2
\\AOBSRV1\FIN9
  4
A4
  6

 40
6.011333465576171
 41
4.233341693878173
 42
6.011322021484375
 43
4.23333740234375
 44
209.9733276367187
 45
296.9259948730469
 46
0.0
 47
0.0
 48
0.0
 49
0.0
140
0.0
141
0.0
142
1.0
143
1.0
 70
   688
 72
     1
 73
     1
 74
     5
  7

 75
    16
147
1.0
148
0.0
149
0.0
100
AcDbLayout
  1
Layout1
 70
     1
 71
     1
 10
-4.23333740234375
 20
-6.011333465576171
 11
292.6926574707031
 21
203.9619941711425
 12
0.0
 22
0.0
 32
0.0
 14
28.8459315776825
 24
19.79506721496582
 34
0.0
 15
259.6133841991424
 25
178.1556049346923
 35
0.0
146
0.0
 13
0.0
 23
0.0
 33
0.0
 16
1.0
 26
0.0
 36
0.0
 17
0.0
 27
1.0
 37
0.0
 76
     0
330
1B
331
6A
  0
LAYOUT
  5
22
102
{ACAD_REACTORS
330
1A
102
}
330
1A
100
AcDbPlotSettings
  1

  2
\\AOBSRV1\FIN9
  4

  6

 40
0.0
 41
0.0
 42
0.0
 43
0.0
 44
0.0
 45
0.0
 46
0.0
 47
0.0
 48
0.0
 49
0.0
140
0.0
141
0.0
142
1.0
143
1.0
 70
  1712
 72
     0
 73
     0
 74
     0
  7

 75
     0
147
1.0
148
0.0
149
0.0
100
AcDbLayout
  1
Model
 70
     1
 71
     0
 10
0.0
 20
0.0
 11
12.0
 21
9.0
 12
0.0
 22
0.0
 32
0.0
 14
0.0
 24
0.0
 34
0.0
 15
0.0
 25
0.0
 35
0.0
146
0.0
 13
0.0
 23
0.0
 33
0.0
 16
1.0
 26
0.0
 36
0.0
 17
0.0
 27
1.0
 37
0.0
 76
     0
330
1F
  0
MLINESTYLE
  5
18
102
{ACAD_REACTORS
330
17
102
}
330
17
100
AcDbMlineStyle
  2
STANDARD
 70
     0
  3

 62
   256
 51
90.0
 52
90.0
 71
     2
 49
0.5
 62
   256
  6
BYLAYER
 49
-0.5
 62
   256
  6
BYLAYER
  0
ACDBPLACEHOLDER
  5
F
102
{ACAD_REACTORS
330
E
102
}
330
E
  0
DICTIONARYVAR
  5
46
102
{ACAD_REACTORS
330
44
102
}
330
44
100
DictionaryVariables
280
     0
  1
2
  0
DICTIONARYVAR
  5
45
102
{ACAD_REACTORS
330
44
102
}
330
44
100
DictionaryVariables
280
     0
  1
1
  0
XRECORD
  5
2D
102
{ACAD_REACTORS
330
2C
102
}
330
2C
100
AcDbXrecord
280
     1
  1
GEO
  1
GEO-*
  1
*
  1
*
 70
     0
  1
*
  1
*
  0
XRECORD
  5
2E
102
{ACAD_REACTORS
330
2C
102
}
330
2C
100
AcDbXrecord
280
     1
  1
RAK
  1
RAK-*
  1
*
  1
*
 70
     0
  1
*
  1
*
  0
XRECORD
  5
2F
102
{ACAD_REACTORS
330
2C
102
}
330
2C
100
AcDbXrecord
280
     1
  1
RAK&GEO
  1
RAK-*,GEO-*
  1
*
  1
*
 70
     0
  1
*
  1
*
  0
ENDSEC
  0
EOF
