  0
SECTION
  2
HEADER
  9
$ACADVER
  1
AC1015
  9
$ACADMAINTVER
 70
    14
  9
$DWGCODEPAGE
  3
ANSI_1252
  9
$INSBASE
 10
0.0
 20
0.0
 30
0.0
  9
$EXTMIN
 10
303.9859937861042
 20
1224.929306049975
 30
0.0
  9
$EXTMAX
 10
1604.456556534581
 20
1610.399868798453
 30
0.0
  9
$LIMMIN
 10
0.0
 20
0.0
  9
$LIMMAX
 10
420.0
 20
297.0
  9
$ORTHOMODE
 70
     0
  9
$REGENMODE
 70
     1
  9
$FILLMODE
 70
     1
  9
$QTEXTMODE
 70
     0
  9
$MIRRTEXT
 70
     1
  9
$LTSCALE
 40
1.0
  9
$ATTMODE
 70
     1
  9
$TEXTSIZE
 40
2.5
  9
$TRACEWID
 40
1.0
  9
$TEXTSTYLE
  7
Standard
  9
$CLAYER
  8
0
  9
$CELTYPE
  6
ByLayer
  9
$CECOLOR
 62
   256
  9
$CELTSCALE
 40
1.0
  9
$DISPSILH
 70
     0
  9
$DIMSCALE
 40
1.0
  9
$DIMASZ
 40
2.5
  9
$DIMEXO
 40
0.625
  9
$DIMDLI
 40
3.75
  9
$DIMRND
 40
0.0
  9
$DIMDLE
 40
0.0
  9
$DIMEXE
 40
1.25
  9
$DIMTP
 40
0.0
  9
$DIMTM
 40
0.0
  9
$DIMTXT
 40
2.5
  9
$DIMCEN
 40
2.5
  9
$DIMTSZ
 40
0.0
  9
$DIMTOL
 70
     0
  9
$DIMLIM
 70
     0
  9
$DIMTIH
 70
     0
  9
$DIMTOH
 70
     0
  9
$DIMSE1
 70
     0
  9
$DIMSE2
 70
     0
  9
$DIMTAD
 70
     1
  9
$DIMZIN
 70
     8
  9
$DIMBLK
  1

  9
$DIMASO
 70
     1
  9
$DIMSHO
 70
     1
  9
$DIMPOST
  1

  9
$DIMAPOST
  1

  9
$DIMALT
 70
     0
  9
$DIMALTD
 70
     3
  9
$DIMALTF
 40
0.03937007874016
  9
$DIMLFAC
 40
1.0
  9
$DIMTOFL
 70
     1
  9
$DIMTVP
 40
0.0
  9
$DIMTIX
 70
     0
  9
$DIMSOXD
 70
     0
  9
$DIMSAH
 70
     0
  9
$DIMBLK1
  1

  9
$DIMBLK2
  1

  9
$DIMSTYLE
  2
ISO-25
  9
$DIMCLRD
 70
     0
  9
$DIMCLRE
 70
     0
  9
$DIMCLRT
 70
     0
  9
$DIMTFAC
 40
1.0
  9
$DIMGAP
 40
0.625
  9
$DIMJUST
 70
     0
  9
$DIMSD1
 70
     0
  9
$DIMSD2
 70
     0
  9
$DIMTOLJ
 70
     0
  9
$DIMTZIN
 70
     8
  9
$DIMALTZ
 70
     0
  9
$DIMALTTZ
 70
     0
  9
$DIMUPT
 70
     0
  9
$DIMDEC
 70
     2
  9
$DIMTDEC
 70
     2
  9
$DIMALTU
 70
     2
  9
$DIMALTTD
 70
     3
  9
$DIMTXSTY
  7
Standard
  9
$DIMAUNIT
 70
     0
  9
$DIMADEC
 70
     0
  9
$DIMALTRND
 40
0.0
  9
$DIMAZIN
 70
     0
  9
$DIMDSEP
 70
    44
  9
$DIMATFIT
 70
     3
  9
$DIMFRAC
 70
     0
  9
$DIMLDRBLK
  1

  9
$DIMLUNIT
 70
     2
  9
$DIMLWD
 70
    -2
  9
$DIMLWE
 70
    -2
  9
$DIMTMOVE
 70
     0
  9
$LUNITS
 70
     2
  9
$LUPREC
 70
     4
  9
$SKETCHINC
 40
1.0
  9
$FILLETRAD
 40
10.0
  9
$AUNITS
 70
     0
  9
$AUPREC
 70
     0
  9
$MENU
  1
.
  9
$ELEVATION
 40
0.0
  9
$PELEVATION
 40
0.0
  9
$THICKNESS
 40
0.0
  9
$LIMCHECK
 70
     0
  9
$CHAMFERA
 40
10.0
  9
$CHAMFERB
 40
10.0
  9
$CHAMFERC
 40
20.0
  9
$CHAMFERD
 40
0.0
  9
$SKPOLY
 70
     0
  9
$TDCREATE
 40
2452984.401453715
  9
$TDUCREATE
 40
2452984.359787048
  9
$TDUPDATE
 40
2452989.711599108
  9
$TDUUPDATE
 40
2452989.669932442
  9
$TDINDWG
 40
0.0455738079
  9
$TDUSRTIMER
 40
0.0455736227
  9
$USRTIMER
 70
     1
  9
$ANGBASE
 50
0.0
  9
$ANGDIR
 70
     0
  9
$PDMODE
 70
     0
  9
$PDSIZE
 40
0.0
  9
$PLINEWID
 40
0.0
  9
$SPLFRAME
 70
     0
  9
$SPLINETYPE
 70
     6
  9
$SPLINESEGS
 70
     8
  9
$HANDSEED
  5
F6E
  9
$SURFTAB1
 70
     6
  9
$SURFTAB2
 70
     6
  9
$SURFTYPE
 70
     6
  9
$SURFU
 70
     6
  9
$SURFV
 70
     6
  9
$UCSBASE
  2

  9
$UCSNAME
  2

  9
$UCSORG
 10
324.2212751603428
 20
1249.664587424214
 30
0.0
  9
$UCSXDIR
 10
1.0
 20
0.0
 30
0.0
  9
$UCSYDIR
 10
0.0
 20
1.0
 30
0.0
  9
$UCSORTHOREF
  2

  9
$UCSORTHOVIEW
 70
     0
  9
$UCSORGTOP
 10
0.0
 20
0.0
 30
0.0
  9
$UCSORGBOTTOM
 10
0.0
 20
0.0
 30
0.0
  9
$UCSORGLEFT
 10
0.0
 20
0.0
 30
0.0
  9
$UCSORGRIGHT
 10
0.0
 20
0.0
 30
0.0
  9
$UCSORGFRONT
 10
0.0
 20
0.0
 30
0.0
  9
$UCSORGBACK
 10
0.0
 20
0.0
 30
0.0
  9
$PUCSBASE
  2

  9
$PUCSNAME
  2

  9
$PUCSORG
 10
0.0
 20
0.0
 30
0.0
  9
$PUCSXDIR
 10
1.0
 20
0.0
 30
0.0
  9
$PUCSYDIR
 10
0.0
 20
1.0
 30
0.0
  9
$PUCSORTHOREF
  2

  9
$PUCSORTHOVIEW
 70
     0
  9
$PUCSORGTOP
 10
0.0
 20
0.0
 30
0.0
  9
$PUCSORGBOTTOM
 10
0.0
 20
0.0
 30
0.0
  9
$PUCSORGLEFT
 10
0.0
 20
0.0
 30
0.0
  9
$PUCSORGRIGHT
 10
0.0
 20
0.0
 30
0.0
  9
$PUCSORGFRONT
 10
0.0
 20
0.0
 30
0.0
  9
$PUCSORGBACK
 10
0.0
 20
0.0
 30
0.0
  9
$USERI1
 70
     0
  9
$USERI2
 70
     0
  9
$USERI3
 70
     0
  9
$USERI4
 70
     0
  9
$USERI5
 70
     0
  9
$USERR1
 40
0.0
  9
$USERR2
 40
0.0
  9
$USERR3
 40
0.0
  9
$USERR4
 40
0.0
  9
$USERR5
 40
0.0
  9
$WORLDVIEW
 70
     1
  9
$SHADEDGE
 70
     3
  9
$SHADEDIF
 70
    70
  9
$TILEMODE
 70
     1
  9
$MAXACTVP
 70
    64
  9
$PINSBASE
 10
0.0
 20
0.0
 30
0.0
  9
$PLIMCHECK
 70
     0
  9
$PEXTMIN
 10
28.8459315776825
 20
19.79506721496582
 30
0.0
  9
$PEXTMAX
 10
259.6133841991424
 20
178.1556049346923
 30
0.0
  9
$PLIMMIN
 10
-4.23333740234375
 20
-6.011333465576171
  9
$PLIMMAX
 10
292.6926574707031
 20
203.9619941711425
  9
$UNITMODE
 70
     0
  9
$VISRETAIN
 70
     1
  9
$PLINEGEN
 70
     0
  9
$PSLTSCALE
 70
     1
  9
$TREEDEPTH
 70
  3020
  9
$CMLSTYLE
  2
Standard
  9
$CMLJUST
 70
     0
  9
$CMLSCALE
 40
20.0
  9
$PROXYGRAPHICS
 70
     1
  9
$MEASUREMENT
 70
     1
  9
$CELWEIGHT
370
    -1
  9
$ENDCAPS
280
     0
  9
$JOINSTYLE
280
     0
  9
$LWDISPLAY
290
     0
  9
$INSUNITS
 70
     4
  9
$HYPERLINKBASE
  1

  9
$STYLESHEET
  1

  9
$XEDIT
290
     1
  9
$CEPSNTYPE
380
     0
  9
$PSTYLEMODE
290
     1
  9
$FINGERPRINTGUID
  2
{1F0C9108-7A24-43FE-92C0-F61D6143634A}
  9
$VERSIONGUID
  2
{A601D228-172E-4DDA-85F6-6D7625E38FCE}
  9
$EXTNAMES
290
     1
  9
$PSVPSCALE
 40
0.0
  9
$OLESTARTUP
290
     0
  0
ENDSEC
  0
SECTION
  2
CLASSES
  0
CLASS
  1
ACDBDICTIONARYWDFLT
  2
AcDbDictionaryWithDefault
  3
AutoCAD 2000
 90
        0
280
     0
281
     0
  0
CLASS
  1
ACDBPLACEHOLDER
  2
AcDbPlaceHolder
  3
AutoCAD 2000
 90
        0
280
     0
281
     0
  0
CLASS
  1
LAYOUT
  2
AcDbLayout
  3
AutoCAD 2000
 90
        0
280
     0
281
     0
  0
CLASS
  1
DICTIONARYVAR
  2
AcDbDictionaryVar
  3
AutoCAD 2000
 90
        0
280
     0
281
     0
  0
ENDSEC
  0
SECTION
  2
TABLES
  0
TABLE
  2
VPORT
  5
8
330
0
100
AcDbSymbolTable
 70
     2
  0
VPORT
  5
F6D
330
8
100
AcDbSymbolTableRecord
100
AcDbViewportTableRecord
  2
*Active
 70
     0
 10
0.0
 20
0.0
 11
1.0
 21
1.0
 12
954.200695428906
 22
1417.675780075758
 13
0.0
 23
0.0
 14
10.0
 24
10.0
 15
10.0
 25
10.0
 16
0.0
 26
0.0
 36
1.0
 17
0.0
 27
0.0
 37
0.0
 40
876.2316791892102
 41
1.4923273657289
 42
50.0
 43
0.0
 44
0.0
 50
0.0
 51
0.0
 71
     0
 72
   100
 73
     1
 74
     3
 75
     0
 76
     0
 77
     0
 78
     0
281
     0
 65
     1
110
324.2212751603428
120
1249.664587424214
130
0.0
111
1.0
121
0.0
131
0.0
112
0.0
122
1.0
132
0.0
 79
     0
146
0.0
  0
ENDTAB
  0
TABLE
  2
LTYPE
  5
5
330
0
100
AcDbSymbolTable
 70
     1
  0
LTYPE
  5
14
330
5
100
AcDbSymbolTableRecord
100
AcDbLinetypeTableRecord
  2
ByBlock
 70
     0
  3

 72
    65
 73
     0
 40
0.0
  0
LTYPE
  5
15
330
5
100
AcDbSymbolTableRecord
100
AcDbLinetypeTableRecord
  2
ByLayer
 70
     0
  3

 72
    65
 73
     0
 40
0.0
  0
LTYPE
  5
16
330
5
100
AcDbSymbolTableRecord
100
AcDbLinetypeTableRecord
  2
Continuous
 70
     0
  3
Solid line
 72
    65
 73
     0
 40
0.0
  0
ENDTAB
  0
TABLE
  2
LAYER
  5
2
102
{ACAD_XDICTIONARY
360
2B
102
}
330
0
100
AcDbSymbolTable
 70
     1
  0
LAYER
  5
10
330
2
100
AcDbSymbolTableRecord
100
AcDbLayerTableRecord
  2
0
 70
     0
 62
     7
  6
Continuous
370
    -3
390
F
  0
ENDTAB
  0
TABLE
  2
STYLE
  5
3
330
0
100
AcDbSymbolTable
 70
     1
  0
STYLE
  5
11
330
3
100
AcDbSymbolTableRecord
100
AcDbTextStyleTableRecord
  2
Standard
 70
     0
 40
0.0
 41
1.0
 50
0.0
 71
     0
 42
2.5
  3
txt
  4

  0
ENDTAB
  0
TABLE
  2
VIEW
  5
6
330
0
100
AcDbSymbolTable
 70
     0
  0
ENDTAB
  0
TABLE
  2
UCS
  5
7
330
0
100
AcDbSymbolTable
 70
     0
  0
ENDTAB
  0
TABLE
  2
APPID
  5
9
330
0
100
AcDbSymbolTable
 70
     1
  0
APPID
  5
12
330
9
100
AcDbSymbolTableRecord
100
AcDbRegAppTableRecord
  2
ACAD
 70
     0
  0
ENDTAB
  0
TABLE
  2
DIMSTYLE
  5
A
330
0
100
AcDbSymbolTable
 70
     1
100
AcDbDimStyleTable
 71
     0
  0
DIMSTYLE
105
27
330
A
100
AcDbSymbolTableRecord
100
AcDbDimStyleTableRecord
  2
ISO-25
 70
     0
 41
2.5
 42
0.625
 43
3.75
 44
1.25
 73
     0
 74
     0
 77
     1
 78
     8
140
2.5
141
2.5
143
0.03937007874016
147
0.625
171
     3
172
     1
271
     2
272
     2
274
     3
278
    44
283
     0
284
     8
340
11
  0
ENDTAB
  0
TABLE
  2
BLOCK_RECORD
  5
1
330
0
100
AcDbSymbolTable
 70
     1
  0
BLOCK_RECORD
  5
1F
330
1
100
AcDbSymbolTableRecord
100
AcDbBlockTableRecord
  2
*Model_Space
340
22
  0
BLOCK_RECORD
  5
1B
330
1
100
AcDbSymbolTableRecord
100
AcDbBlockTableRecord
  2
*Paper_Space
340
1E
  0
BLOCK_RECORD
  5
EFD
330
1
100
AcDbSymbolTableRecord
100
AcDbBlockTableRecord
  2
az18-10-10d
340
0
310
2800000020000000200000000100080000000000000400000000000000000000000000000000000000000000000080000080000000808000800000008000800080800000C0C0C000C0DCC000F0CAA6000020400000206000002080000020A0000020C0000020E00000400000004020000040400000406000004080000040A0
310
000040C0000040E00000600000006020000060400000606000006080000060A0000060C0000060E00000800000008020000080400000806000008080000080A0000080C0000080E00000A0000000A0200000A0400000A0600000A0800000A0A00000A0C00000A0E00000C0000000C0200000C0400000C0600000C0800000C0
310
A00000C0C00000C0E00000E0000000E0200000E0400000E0600000E0800000E0A00000E0C00000E0E00040000000400020004000400040006000400080004000A0004000C0004000E00040200000402020004020400040206000402080004020A0004020C0004020E000404000004040200040404000404060004040800040
310
40A0004040C0004040E00040600000406020004060400040606000406080004060A0004060C0004060E00040800000408020004080400040806000408080004080A0004080C0004080E00040A0000040A0200040A0400040A0600040A0800040A0A00040A0C00040A0E00040C0000040C0200040C0400040C0600040C08000
310
40C0A00040C0C00040C0E00040E0000040E0200040E0400040E0600040E0800040E0A00040E0C00040E0E00080000000800020008000400080006000800080008000A0008000C0008000E00080200000802020008020400080206000802080008020A0008020C0008020E00080400000804020008040400080406000804080
310
008040A0008040C0008040E00080600000806020008060400080606000806080008060A0008060C0008060E00080800000808020008080400080806000808080008080A0008080C0008080E00080A0000080A0200080A0400080A0600080A0800080A0A00080A0C00080A0E00080C0000080C0200080C0400080C0600080C0
310
800080C0A00080C0C00080C0E00080E0000080E0200080E0400080E0600080E0800080E0A00080E0C00080E0E000C0000000C0002000C0004000C0006000C0008000C000A000C000C000C000E000C0200000C0202000C0204000C0206000C0208000C020A000C020C000C020E000C0400000C0402000C0404000C0406000C0
310
408000C040A000C040C000C040E000C0600000C0602000C0604000C0606000C0608000C060A000C060C000C060E000C0800000C0802000C0804000C0806000C0808000C080A000C080C000C080E000C0A00000C0A02000C0A04000C0A06000C0A08000C0A0A000C0A0C000C0A0E000C0C00000C0C02000C0C04000C0C06000
310
C0C08000C0C0A000F0FBFF00A4A0A000808080000000FF0000FF000000FFFF00FF000000FF00FF00FFFF0000FFFFFF0000000000000000000000000000000000000000000000000000000000000000000000000000000000000000000000000000000000000000000000000000000000000000000000000000000000000000
310
00000000000000000000000000000000000000000000000000000000000000000000000000000000000000000000000000000000000000000000000000000000000000000000000000000000000000000000000000000000000000000000000000000000000000000000000000000000000000000000000000000000000000
310
00000000000000000000000000000000000000000000000000000000000000000000000000000000000000000000000000000000000000000000000000000000000000000000000000000000000000000000000000000000000000000000000000000000000000000000000000000000000000000000000000000000000000
310
000000000000000000000000000000000000000000FFFFFFFFFF00000000000000000000000000000000000000FFFFFFFF000000FFFFFFFFFFFF000000000000000000000000000000000000FFFFFFFFFEFF0000000000000000FF00000000000000000000000000000000FF000000000000000000000000000000FF000000
310
000000000000000000000000FF00000000000000000000000000000000FF00000000000000000000000000FF0000000000000000000000000000000000FF000000000000000000000000FF00000000000000000000000000000000000000FF00000000000000000000FF000000000000000000000000000000000000000000
310
FF000000000000000000FF00000000000000000000000000000000000000000000FFFFFFFFFFFFFFFFFF0000000000000000000000000000000000000000000000FFFFFFFFFFFFFFFFFF0000000000000000000000000000000000000000000000000000000000000000000000000000000000000000000000000000000000
310
00000000000000000000000000000000000000000000000000000000000000000000000000000000000000000000000000000000000000000000000000000000000000000000000000000000000000000000000000000000000000000000000000000000000000000000000000000000000000000000000000000000000000
310
00000000000000000000000000000000000000000000000000000000000000000000000000000000000000000000000000000000000000000000000000000000000000000000000000000000000000000000000000000000000000000000000000000000000000000000000000000000000000000000000000000000000000
310
0000000000000000000000000000000000000000000000000000000000000000000000000000000000000000000000000000000000000000
102
{BLKREFS
331
F5E
102
}
1001
ACAD
1000
DesignCenter Data
1002
{
1070
     1
1070
     4
1002
}
  0
ENDTAB
  0
ENDSEC
  0
SECTION
  2
BLOCKS
  0
BLOCK
  5
20
330
1F
100
AcDbEntity
  8
0
100
AcDbBlockBegin
  2
*Model_Space
 70
     0
 10
0.0
 20
0.0
 30
0.0
  3
*Model_Space
  1

  0
ENDBLK
  5
21
330
1F
100
AcDbEntity
  8
0
100
AcDbBlockEnd
  0
BLOCK
  5
1C
330
1B
100
AcDbEntity
 67
     1
  8
0
100
AcDbBlockBegin
  2
*Paper_Space
 70
     0
 10
0.0
 20
0.0
 30
0.0
  3
*Paper_Space
  1

  0
ENDBLK
  5
1D
330
1B
100
AcDbEntity
 67
     1
  8
0
100
AcDbBlockEnd
  0
BLOCK
  5
EFE
330
EFD
100
AcDbEntity
  8
0
100
AcDbBlockBegin
  2
az18-10-10d
 70
     0
 10
0.0
 20
0.0
 30
0.0
  3
az18-10-10d
  1

  0
LINE
  5
F00
330
EFD
100
AcDbEntity
  8
0
 62
     7
100
AcDbLine
 10
660.3779483782946
 20
358.2500000000009
 30
0.0
 11
823.6549357234016
 21
358.2500000000009
 31
0.0
  0
LINE
  5
F01
330
EFD
100
AcDbEntity
  8
0
 62
     7
100
AcDbLine
 10
669.1765123461709
 20
348.2500000000009
 30
0.0
 11
815.7797428936083
 21
348.2500000000009
 31
0.0
  0
ARC
  5
F02
330
EFD
100
AcDbEntity
  8
0
 62
     7
100
AcDbCircle
 10
624.2499999999999
 20
325.7500000000009
 30
0.0
 40
12.0
100
AcDbArc
 50
180.0
 51
270.0
  0
ARC
  5
F03
330
EFD
100
AcDbEntity
  8
0
 62
     7
100
AcDbCircle
 10
647.6266428348572
 20
325.7500000000009
 30
0.0
 40
12.0
100
AcDbArc
 50
270.0
 51
354.2890000000017
  0
LINE
  5
F04
330
EFD
100
AcDbEntity
  8
0
 62
     7
100
AcDbLine
 10
451.1575098299654
 20
339.606846046
 30
0.0
 11
206.0019961807211
 21
-15.76763453449894
 31
0.0
  0
LINE
  5
F05
330
EFD
100
AcDbEntity
  8
0
 62
     7
100
AcDbLine
 10
447.3980038192776
 20
351.7676345345007
 30
0.0
 11
202.2424901700342
 21
-3.606846045999191
 31
0.0
  0
LINE
  5
F06
330
EFD
100
AcDbEntity
  8
0
 62
     7
100
AcDbLine
 10
30.3779483782946
 20
-22.25
 30
0.0
 11
193.6549357234016
 21
-22.25
 31
0.0
  0
LINE
  5
F07
330
EFD
100
AcDbEntity
  8
0
 62
     7
100
AcDbLine
 10
39.17651234617096
 20
-12.25
 30
0.0
 11
185.7797428936082
 21
-12.25
 31
0.0
  0
LINE
  5
F08
330
EFD
100
AcDbEntity
  8
0
 62
     7
100
AcDbLine
 10
22.41765650949401
 20
-15.04608627893867
 30
0.0
 11
20.11312721773083
 21
7.997553924336898
 31
0.0
  0
ARC
  5
F09
330
EFD
100
AcDbEntity
  8
0
 62
     7
100
AcDbCircle
 10
39.17651234617096
 20
-4.25
 30
0.0
 40
8.0
100
AcDbArc
 50
185.7109999999982
 51
270.0
  0
ARC
  5
F0A
330
EFD
100
AcDbEntity
  8
0
 62
     7
100
AcDbCircle
 10
30.3779483782946
 20
-14.25
 30
0.0
 40
8.0
100
AcDbArc
 50
185.7109999999982
 51
270.0
  0
LINE
  5
F0B
330
EFD
100
AcDbEntity
  8
0
 62
     7
100
AcDbLine
 10
15.13794479973057
 20
12.5
 30
0.0
 11
-5.25
 21
12.5
 31
0.0
  0
LINE
  5
F0C
330
EFD
100
AcDbEntity
  8
0
 62
     7
100
AcDbLine
 10
6.545248191544487
 20
-6.787101521733347
 30
0.0
 11
-7.257391819076474
 21
5.64085136581707
 31
0.0
  0
LINE
  5
F0D
330
EFD
100
AcDbEntity
  8
0
 62
     7
100
AcDbLine
 10
5.11999999999989
 20
-10.5
 30
0.0
 11
-0.150284093202572
 21
-10.5
 31
0.0
  0
LINE
  5
F0E
330
EFD
100
AcDbEntity
  8
0
 62
     7
100
AcDbLine
 10
17.62664283485719
 20
22.25
 30
0.0
 11
-5.75
 21
22.25
 31
0.0
  0
LINE
  5
F0F
330
EFD
100
AcDbEntity
  8
0
 62
     4
100
AcDbLine
 10
10.0
 20
0.0
 30
0.0
 11
-10.0
 21
0.0
 31
0.0
  0
ARC
  5
F10
330
EFD
100
AcDbEntity
  8
0
 62
     7
100
AcDbCircle
 10
-5.75
 20
10.25
 30
0.0
 40
12.0
100
AcDbArc
 50
90.0
 51
180.0
  0
ARC
  5
F11
330
EFD
100
AcDbEntity
  8
0
 62
     7
100
AcDbCircle
 10
-5.25
 20
9.5
 30
0.0
 40
3.0
100
AcDbArc
 50
90.0
 51
180.0
  0
LINE
  5
F12
330
EFD
100
AcDbEntity
  8
0
 62
     7
100
AcDbLine
 10
-8.25
 20
7.870285842249359
 30
0.0
 11
-8.25
 21
9.5
 31
0.0
  0
ARC
  5
F13
330
EFD
100
AcDbEntity
  8
0
 62
     7
100
AcDbCircle
 10
-5.25
 20
7.870285842249359
 30
0.0
 40
3.0
100
AcDbArc
 50
180.0
 51
228.0000000000035
  0
ARC
  5
F14
330
EFD
100
AcDbEntity
  8
0
 62
     7
100
AcDbCircle
 10
-0.150284093202572
 20
9.5
 30
0.0
 40
20.0
100
AcDbArc
 50
220.5383065501026
 51
270.0
  0
ARC
  5
F15
330
EFD
100
AcDbEntity
  8
0
 62
     7
100
AcDbCircle
 10
-7.75
 20
3.000437081160271
 30
0.0
 40
10.0
100
AcDbArc
 50
180.0
 51
220.5383065501026
  0
LINE
  5
F16
330
EFD
100
AcDbEntity
  8
0
 62
     7
100
AcDbLine
 10
-17.75
 20
3.00043708116118
 30
0.0
 11
-17.75
 21
10.25
 31
0.0
  0
LINE
  5
F17
330
EFD
100
AcDbEntity
  8
0
 62
     4
100
AcDbLine
 10
0.0
 20
-10.0
 30
0.0
 11
0.0
 21
10.0
 31
0.0
  0
ARC
  5
F18
330
EFD
100
AcDbEntity
  8
0
 62
     7
100
AcDbCircle
 10
17.62664283485719
 20
10.25
 30
0.0
 40
12.0
100
AcDbArc
 50
5.710999999998278
 51
90.0
  0
ARC
  5
F19
330
EFD
100
AcDbEntity
  8
0
 62
     7
100
AcDbCircle
 10
15.13794479973057
 20
7.5
 30
0.0
 40
5.0
100
AcDbArc
 50
5.710999999998278
 51
90.0
  0
ARC
  5
F1A
330
EFD
100
AcDbEntity
  8
0
 62
     7
100
AcDbCircle
 10
5.11999999999989
 20
-8.36999999999989
 30
0.0
 40
2.129999999999999
100
AcDbArc
 50
270.0
 51
47.9999999999876
  0
LINE
  5
F1B
330
EFD
100
AcDbEntity
  8
0
 62
     7
100
AcDbLine
 10
31.21622047737128
 20
-5.046086278938673
 30
0.0
 11
29.56708063805763
 21
11.44412941840892
 31
0.0
  0
ARC
  5
F1C
330
EFD
100
AcDbEntity
  8
0
 62
     7
100
AcDbCircle
 10
185.7797428936082
 20
7.75
 30
0.0
 40
20.0
100
AcDbArc
 50
270.0
 51
325.4001004251723
  0
ARC
  5
F1D
330
EFD
100
AcDbEntity
  8
0
 62
     7
100
AcDbCircle
 10
193.6549357234016
 20
-7.25
 30
0.0
 40
15.0
100
AcDbArc
 50
270.0
 51
325.4001004251742
  0
LINE
  5
F1E
330
EFD
100
AcDbEntity
  8
0
 62
     7
100
AcDbLine
 10
467.6202571063904
 20
348.2499999999999
 30
0.0
 11
572.6901282556673
 21
348.2499999999999
 31
0.0
  0
LINE
  5
F1F
330
EFD
100
AcDbEntity
  8
0
 62
     7
100
AcDbLine
 10
459.745064276597
 20
358.25
 30
0.0
 11
635.7499999999999
 21
358.2500000000009
 31
0.0
  0
ARC
  5
F20
330
EFD
100
AcDbEntity
  8
0
 62
     7
100
AcDbCircle
 10
467.6202571063904
 20
328.25
 30
0.0
 40
20.0
100
AcDbArc
 50
90.0
 51
145.4001004251723
  0
ARC
  5
F21
330
EFD
100
AcDbEntity
  8
0
 62
     7
100
AcDbCircle
 10
459.745064276597
 20
343.25
 30
0.0
 40
15.0
100
AcDbArc
 50
90.0
 51
145.4001004251723
  0
LINE
  5
F22
330
EFD
100
AcDbEntity
  8
0
 62
     7
100
AcDbLine
 10
645.1379447997306
 20
323.5000000000009
 30
0.0
 11
624.75
 21
323.5000000000009
 31
0.0
  0
LINE
  5
F23
330
EFD
100
AcDbEntity
  8
0
 62
     7
100
AcDbLine
 10
636.5452481915444
 20
342.7871015217342
 30
0.0
 11
622.7426081809235
 21
330.3591486341838
 31
0.0
  0
LINE
  5
F24
330
EFD
100
AcDbEntity
  8
0
 62
     7
100
AcDbLine
 10
635.1199999999998
 20
346.5000000000009
 30
0.0
 11
629.8497159067974
 21
346.5000000000009
 31
0.0
  0
LINE
  5
F25
330
EFD
100
AcDbEntity
  8
0
 62
     7
100
AcDbLine
 10
647.6266428348572
 20
313.7500000000009
 30
0.0
 11
624.2499999999999
 21
313.7500000000009
 31
0.0
  0
LINE
  5
F26
330
EFD
100
AcDbEntity
  8
0
 62
     7
100
AcDbLine
 10
614.8620552002694
 20
348.4999999999999
 30
0.0
 11
635.25
 21
348.4999999999999
 31
0.0
  0
LINE
  5
F27
330
EFD
100
AcDbEntity
  8
0
 62
     7
100
AcDbLine
 10
623.4547518084554
 20
329.2128984782675
 30
0.0
 11
637.2573918190765
 21
341.640851365817
 31
0.0
  0
ARC
  5
F28
330
EFD
100
AcDbEntity
  8
0
 62
     7
100
AcDbCircle
 10
630.1502840932016
 20
345.5
 30
0.0
 40
20.0
100
AcDbArc
 50
270.0
 51
319.4616934499072
  0
LINE
  5
F29
330
EFD
100
AcDbEntity
  8
0
 62
     4
100
AcDbLine
 10
640.0
 20
336.0000000000009
 30
0.0
 11
620.0
 21
336.0000000000009
 31
0.0
  0
ARC
  5
F2A
330
EFD
100
AcDbEntity
  8
0
 62
     7
100
AcDbCircle
 10
622.25
 20
332.9995629188406
 30
0.0
 40
10.0
100
AcDbArc
 50
139.4616934498952
 51
180.0
  0
LINE
  5
F2B
330
EFD
100
AcDbEntity
  8
0
 62
     7
100
AcDbLine
 10
602.7238865666904
 20
323.5716371709404
 30
0.0
 11
588.0110171180477
 21
341.1057521937309
 31
0.0
  0
LINE
  5
F2C
330
EFD
100
AcDbEntity
  8
0
 62
     7
100
AcDbLine
 10
608.0071293468481
 20
325.2014676453982
 30
0.0
 11
609.8868727822691
 21
343.9975539243369
 31
0.0
  0
LINE
  5
F2D
330
EFD
100
AcDbEntity
  8
0
 62
     4
100
AcDbLine
 10
630.0
 20
346.0000000000009
 30
0.0
 11
630.0
 21
326.0000000000009
 31
0.0
  0
ARC
  5
F2E
330
EFD
100
AcDbEntity
  8
0
 62
     7
100
AcDbCircle
 10
624.75
 20
326.5000000000009
 30
0.0
 40
3.0
100
AcDbArc
 50
180.0
 51
270.0
  0
LINE
  5
F2F
330
EFD
100
AcDbEntity
  8
0
 62
     7
100
AcDbLine
 10
621.75
 20
328.1297141577515
 30
0.0
 11
621.75
 21
326.5000000000009
 31
0.0
  0
ARC
  5
F30
330
EFD
100
AcDbEntity
  8
0
 62
     7
100
AcDbCircle
 10
624.75
 20
328.1297141577515
 30
0.0
 40
3.0
100
AcDbArc
 50
131.9999999999964
 51
180.0
  0
LINE
  5
F31
330
EFD
100
AcDbEntity
  8
0
 62
     7
100
AcDbLine
 10
612.25
 20
332.9995629188397
 30
0.0
 11
612.25
 21
325.7500000000009
 31
0.0
  0
ARC
  5
F32
330
EFD
100
AcDbEntity
  8
0
 62
     7
100
AcDbCircle
 10
605.0220198960478
 20
325.4999999999999
 30
0.0
 40
3.0
100
AcDbArc
 50
219.9999999999905
 51
354.2890000000017
  0
ARC
  5
F33
330
EFD
100
AcDbEntity
  8
0
 62
     7
100
AcDbCircle
 10
624.8800000000001
 20
327.630000000001
 30
0.0
 40
2.129999999999999
100
AcDbArc
 50
132.0000000000123
 51
270.0
  0
LINE
  5
F34
330
EFD
100
AcDbEntity
  8
0
 62
     7
100
AcDbLine
 10
624.8800000000001
 20
325.4999999999999
 30
0.0
 11
630.1502840932016
 21
325.4999999999999
 31
0.0
  0
ARC
  5
F35
330
EFD
100
AcDbEntity
  8
0
 62
     7
100
AcDbCircle
 10
572.6901282556673
 20
328.25
 30
0.0
 40
20.0
100
AcDbArc
 50
40.00000000000258
 51
90.0
  0
ARC
  5
F36
330
EFD
100
AcDbEntity
  8
0
 62
     7
100
AcDbCircle
 10
629.8497159067974
 20
326.5000000000009
 30
0.0
 40
20.0
100
AcDbArc
 50
90.0
 51
139.4616934498952
  0
ARC
  5
F37
330
EFD
100
AcDbEntity
  8
0
 62
     7
100
AcDbCircle
 10
614.8620552002694
 20
343.5
 30
0.0
 40
5.0
100
AcDbArc
 50
90.0
 51
174.2890000000017
  0
LINE
  5
F38
330
EFD
100
AcDbEntity
  8
0
 62
     7
100
AcDbLine
 10
652.417656509494
 20
351.0460862789396
 30
0.0
 11
650.1131272177308
 21
328.002446075664
 31
0.0
  0
LINE
  5
F39
330
EFD
100
AcDbEntity
  8
0
 62
     7
100
AcDbLine
 10
661.2162204773713
 20
341.0460862789395
 30
0.0
 11
659.5670806380576
 21
324.5558705815919
 31
0.0
  0
LINE
  5
F3A
330
EFD
100
AcDbEntity
  8
0
 62
     7
100
AcDbLine
 10
647.75
 20
339.0004370811602
 30
0.0
 11
647.75
 21
346.2500000000009
 31
0.0
  0
ARC
  5
F3B
330
EFD
100
AcDbEntity
  8
0
 62
     7
100
AcDbCircle
 10
645.1379447997306
 20
328.5000000000009
 30
0.0
 40
5.0
100
AcDbArc
 50
270.0
 51
354.2890000000017
  0
ARC
  5
F3C
330
EFD
100
AcDbEntity
  8
0
 62
     7
100
AcDbCircle
 10
637.75
 20
339.0004370811602
 30
0.0
 40
10.0
100
AcDbArc
 50
319.4616934499072
 51
0.0
  0
ARC
  5
F3D
330
EFD
100
AcDbEntity
  8
0
 62
     7
100
AcDbCircle
 10
669.1765123461709
 20
340.2500000000009
 30
0.0
 40
8.0
100
AcDbArc
 50
90.0
 51
174.2890000000017
  0
ARC
  5
F3E
330
EFD
100
AcDbEntity
  8
0
 62
     7
100
AcDbCircle
 10
660.3779483782946
 20
350.2500000000009
 30
0.0
 40
8.0
100
AcDbArc
 50
90.0
 51
174.2890000000017
  0
ARC
  5
F3F
330
EFD
100
AcDbEntity
  8
0
 62
     7
100
AcDbCircle
 10
635.1199999999998
 20
344.3700000000008
 30
0.0
 40
2.129999999999999
100
AcDbArc
 50
312.0000000000124
 51
90.0
  0
ARC
  5
F40
330
EFD
100
AcDbEntity
  8
0
 62
     7
100
AcDbCircle
 10
635.25
 20
345.5
 30
0.0
 40
3.0
100
AcDbArc
 50
0.0
 51
90.0
  0
LINE
  5
F41
330
EFD
100
AcDbEntity
  8
0
 62
     7
100
AcDbLine
 10
638.25
 20
343.8702858422493
 30
0.0
 11
638.25
 21
345.5
 31
0.0
  0
ARC
  5
F42
330
EFD
100
AcDbEntity
  8
0
 62
     7
100
AcDbCircle
 10
635.25
 20
343.8702858422493
 30
0.0
 40
3.0
100
AcDbArc
 50
311.9999999999964
 51
0.0
  0
ARC
  5
F43
330
EFD
100
AcDbEntity
  8
0
 62
     7
100
AcDbCircle
 10
635.7499999999999
 20
346.2500000000009
 30
0.0
 40
12.0
100
AcDbArc
 50
0.0
 51
90.0
  0
LINE
  5
F44
330
EFD
100
AcDbEntity
  8
0
 62
     7
100
AcDbLine
 10
1081.157509829965
 20
-3.606846045999191
 30
0.0
 11
836.0019961807211
 21
351.7676345345007
 31
0.0
  0
LINE
  5
F45
330
EFD
100
AcDbEntity
  8
0
 62
     7
100
AcDbLine
 10
1077.398003819277
 20
-15.76763453449894
 30
0.0
 11
832.2424901700342
 21
339.606846046
 31
0.0
  0
LINE
  5
F46
330
EFD
100
AcDbEntity
  8
0
 62
     7
100
AcDbLine
 10
1244.862055200269
 20
-12.49999999999909
 30
0.0
 11
1265.249999999999
 21
-12.49999999999909
 31
0.0
  0
LINE
  5
F47
330
EFD
100
AcDbEntity
  8
0
 62
     7
100
AcDbLine
 10
1253.454751808455
 20
6.787101521733347
 30
0.0
 11
1267.257391819076
 21
-5.64085136581616
 31
0.0
  0
LINE
  5
F48
330
EFD
100
AcDbEntity
  8
0
 62
     7
100
AcDbLine
 10
1254.88
 20
10.50000000000091
 30
0.0
 11
1260.150284093201
 21
10.50000000000091
 31
0.0
  0
LINE
  5
F49
330
EFD
100
AcDbEntity
  8
0
 62
     7
100
AcDbLine
 10
1089.745064276597
 20
-22.24999999999909
 30
0.0
 11
1265.75
 21
-22.25
 31
0.0
  0
LINE
  5
F4A
330
EFD
100
AcDbEntity
  8
0
 62
     4
100
AcDbLine
 10
1250.0
 20
0.0000000000009095
 30
0.0
 11
1270.0
 21
0.0000000000009095
 31
0.0
  0
ARC
  5
F4B
330
EFD
100
AcDbEntity
  8
0
 62
     7
100
AcDbCircle
 10
1097.62025710639
 20
7.750000000000909
 30
0.0
 40
20.0
100
AcDbArc
 50
214.5998995748276
 51
270.0
  0
ARC
  5
F4C
330
EFD
100
AcDbEntity
  8
0
 62
     7
100
AcDbCircle
 10
1202.690128255667
 20
7.750000000000909
 30
0.0
 40
20.0
100
AcDbArc
 50
270.0
 51
319.9999999999973
  0
ARC
  5
F4D
330
EFD
100
AcDbEntity
  8
0
 62
     7
100
AcDbCircle
 10
1244.862055200269
 20
-7.49999999999909
 30
0.0
 40
5.0
100
AcDbArc
 50
185.7109999999982
 51
270.0
  0
ARC
  5
F4E
330
EFD
100
AcDbEntity
  8
0
 62
     7
100
AcDbCircle
 10
1089.745064276597
 20
-7.24999999999909
 30
0.0
 40
15.0
100
AcDbArc
 50
214.5998995748276
 51
270.0
  0
LINE
  5
F4F
330
EFD
100
AcDbEntity
  8
0
 62
     7
100
AcDbLine
 10
1097.62025710639
 20
-12.24999999999909
 30
0.0
 11
1202.690128255667
 21
-12.24999999999909
 31
0.0
  0
ARC
  5
F50
330
EFD
100
AcDbEntity
  8
0
 62
     7
100
AcDbCircle
 10
1235.022019896047
 20
10.50000000000091
 30
0.0
 40
3.0
100
AcDbArc
 50
5.710999999998278
 51
140.0000000000094
  0
LINE
  5
F51
330
EFD
100
AcDbEntity
  8
0
 62
     7
100
AcDbLine
 10
1232.72388656669
 20
12.42836282906046
 30
0.0
 11
1218.011017118047
 21
-5.10575219373004
 31
0.0
  0
LINE
  5
F52
330
EFD
100
AcDbEntity
  8
0
 62
     7
100
AcDbLine
 10
1238.007129346848
 20
10.79853235460268
 30
0.0
 11
1239.886872782269
 21
-7.997553924335988
 31
0.0
  0
ARC
  5
F53
330
EFD
100
AcDbEntity
  8
0
 62
     7
100
AcDbCircle
 10
1254.88
 20
8.3700000000008
 30
0.0
 40
2.129999999999999
100
AcDbArc
 50
90.0
 51
228.000000000006
  0
ARC
  5
F54
330
EFD
100
AcDbEntity
  8
0
 62
     7
100
AcDbCircle
 10
1265.249999999999
 20
-9.49999999999909
 30
0.0
 40
3.0
100
AcDbArc
 50
270.0
 51
0.0
  0
ARC
  5
F55
330
EFD
100
AcDbEntity
  8
0
 62
     7
100
AcDbCircle
 10
1265.75
 20
-10.25
 30
0.0
 40
12.0
100
AcDbArc
 50
270.0
 51
0.0
  0
LINE
  5
F56
330
EFD
100
AcDbEntity
  8
0
 62
     7
100
AcDbLine
 10
1268.25
 20
-7.870285842248449
 30
0.0
 11
1268.25
 21
-9.49999999999909
 31
0.0
  0
ARC
  5
F57
330
EFD
100
AcDbEntity
  8
0
 62
     7
100
AcDbCircle
 10
1265.249999999999
 20
-7.870285842248449
 30
0.0
 40
3.0
100
AcDbArc
 50
0.0
 51
48.00000000000359
  0
ARC
  5
F58
330
EFD
100
AcDbEntity
  8
0
 62
     7
100
AcDbCircle
 10
1260.150284093201
 20
-9.49999999999909
 30
0.0
 40
20.0
100
AcDbArc
 50
40.53830655009273
 51
90.0
  0
ARC
  5
F59
330
EFD
100
AcDbEntity
  8
0
 62
     7
100
AcDbCircle
 10
1267.75
 20
-3.000437081159361
 30
0.0
 40
10.0
100
AcDbArc
 50
0.0
 51
40.53830655009273
  0
LINE
  5
F5A
330
EFD
100
AcDbEntity
  8
0
 62
     7
100
AcDbLine
 10
1277.75
 20
-3.000437081159361
 30
0.0
 11
1277.75
 21
-10.25
 31
0.0
  0
LINE
  5
F5B
330
EFD
100
AcDbEntity
  8
0
 62
     4
100
AcDbLine
 10
1260.0
 20
10.00000000000091
 30
0.0
 11
1260.0
 21
-9.99999999999909
 31
0.0
  0
ARC
  5
F5C
330
EFD
100
AcDbEntity
  8
0
 62
     7
100
AcDbCircle
 10
823.6549357234016
 20
343.2500000000008
 30
0.0
 40
15.0
100
AcDbArc
 50
34.59989957482765
 51
90.0
  0
ARC
  5
F5D
330
EFD
100
AcDbEntity
  8
0
 62
     7
100
AcDbCircle
 10
815.7797428936083
 20
328.2500000000009
 30
0.0
 40
20.0
100
AcDbArc
 50
34.59989957482765
 51
90.0
  0
ENDBLK
  5
EFF
330
EFD
100
AcDbEntity
  8
0
100
AcDbBlockEnd
  0
ENDSEC
  0
SECTION
  2
ENTITIES
  0
INSERT
  5
F5E
330
1F
100
AcDbEntity
  8
0
100
AcDbBlockReference
  2
az18-10-10d
 10
324.2212751603428
 20
1249.664587424214
 30
0.0
  0
VIEWPORT
  5
6A
330
1B
100
AcDbEntity
 67
     1
  8
0
100
AcDbViewport
 10
144.2296600341796
 20
98.97533035278321
 30
0.0
 40
348.3547377345459
 41
222.1517806396484
 68
     1
 69
     1
 12
144.2296600341796
 22
98.97533035278321
 13
0.0
 23
0.0
 14
10.0
 24
10.0
 15
10.0
 25
10.0
 16
0.0
 26
0.0
 36
1.0
 17
0.0
 27
0.0
 37
0.0
 42
50.0
 43
0.0
 44
0.0
 45
222.1517806396484
 50
0.0
 51
0.0
 72
   100
 90
    32800
  1

281
     0
 71
     1
 74
     0
110
0.0
120
0.0
130
0.0
111
1.0
121
0.0
131
0.0
112
0.0
122
1.0
132
0.0
 79
     0
146
0.0
  0
VIEWPORT
  5
6C
330
1B
100
AcDbEntity
 67
     1
  8
0
100
AcDbViewport
 10
144.2296578884124
 20
98.97533607482911
 30
0.0
 40
230.7674526214599
 41
158.3605377197265
 68
     2
 69
     2
 12
471.9925402099685
 22
207.0118385025535
 13
0.0
 23
0.0
 14
10.0
 24
10.0
 15
10.0
 25
10.0
 16
0.0
 26
0.0
 36
1.0
 17
0.0
 27
0.0
 37
0.0
 42
50.0
 43
0.0
 44
0.0
 45
537.2024815614429
 50
0.0
 51
0.0
 72
   100
 90
    32864
  1

281
     0
 71
     1
 74
     0
110
330.2484756222961
120
239.5669321729576
130
0.0
111
1.0
121
0.0
131
0.0
112
0.0
122
1.0
132
0.0
 79
     0
146
0.0
  0
ENDSEC
  0
SECTION
  2
OBJECTS
  0
DICTIONARY
  5
C
330
0
100
AcDbDictionary
281
     1
  3
ACAD_GROUP
350
D
  3
ACAD_LAYOUT
350
1A
  3
ACAD_MLINESTYLE
350
17
  3
ACAD_PLOTSETTINGS
350
19
  3
ACAD_PLOTSTYLENAME
350
E
  3
AcDbVariableDictionary
350
44
  0
DICTIONARY
  5
2B
330
2
100
AcDbDictionary
280
     1
281
     1
  3
ACAD_LAYERFILTERS
360
2C
  0
DICTIONARY
  5
D
102
{ACAD_REACTORS
330
C
102
}
330
C
100
AcDbDictionary
281
     1
  0
DICTIONARY
  5
1A
102
{ACAD_REACTORS
330
C
102
}
330
C
100
AcDbDictionary
281
     1
  3
Layout1
350
1E
  3
Model
350
22
  0
DICTIONARY
  5
17
102
{ACAD_REACTORS
330
C
102
}
330
C
100
AcDbDictionary
281
     1
  3
Standard
350
18
  0
DICTIONARY
  5
19
102
{ACAD_REACTORS
330
C
102
}
330
C
100
AcDbDictionary
281
     1
  0
ACDBDICTIONARYWDFLT
  5
E
102
{ACAD_REACTORS
330
C
102
}
330
C
100
AcDbDictionary
281
     1
  3
Normal
350
F
100
AcDbDictionaryWithDefault
340
F
  0
DICTIONARY
  5
44
102
{ACAD_REACTORS
330
C
102
}
330
C
100
AcDbDictionary
281
     1
  3
DIMASSOC
350
46
  3
HIDETEXT
350
45
  0
DICTIONARY
  5
2C
102
{ACAD_REACTORS
330
2B
102
}
330
2B
100
AcDbDictionary
280
     1
281
     1
  3
GEO
360
2D
  3
RAK
360
2E
  3
RAK&GEO
360
2F
  0
LAYOUT
  5
1E
102
{ACAD_REACTORS
330
1A
102
}
330
1A
100
AcDbPlotSettings
  1

  2
\\AOBSRV1\FIN9
  4
A4
  6

 40
6.011333465576171
 41
4.233341693878173
 42
6.011322021484375
 43
4.23333740234375
 44
209.9733276367187
 45
296.9259948730469
 46
0.0
 47
0.0
 48
0.0
 49
0.0
140
0.0
141
0.0
142
1.0
143
1.0
 70
   688
 72
     1
 73
     1
 74
     5
  7

 75
    16
147
1.0
148
0.0
149
0.0
100
AcDbLayout
  1
Layout1
 70
     1
 71
     1
 10
-4.23333740234375
 20
-6.011333465576171
 11
292.6926574707031
 21
203.9619941711425
 12
0.0
 22
0.0
 32
0.0
 14
28.8459315776825
 24
19.79506721496582
 34
0.0
 15
259.6133841991424
 25
178.1556049346923
 35
0.0
146
0.0
 13
0.0
 23
0.0
 33
0.0
 16
1.0
 26
0.0
 36
0.0
 17
0.0
 27
1.0
 37
0.0
 76
     0
330
1B
331
6A
  0
LAYOUT
  5
22
102
{ACAD_REACTORS
330
1A
102
}
330
1A
100
AcDbPlotSettings
  1

  2
\\AOBSRV1\FIN9
  4

  6

 40
0.0
 41
0.0
 42
0.0
 43
0.0
 44
0.0
 45
0.0
 46
0.0
 47
0.0
 48
0.0
 49
0.0
140
0.0
141
0.0
142
1.0
143
1.0
 70
  1712
 72
     0
 73
     0
 74
     0
  7

 75
     0
147
1.0
148
0.0
149
0.0
100
AcDbLayout
  1
Model
 70
     1
 71
     0
 10
0.0
 20
0.0
 11
12.0
 21
9.0
 12
0.0
 22
0.0
 32
0.0
 14
0.0
 24
0.0
 34
0.0
 15
0.0
 25
0.0
 35
0.0
146
0.0
 13
0.0
 23
0.0
 33
0.0
 16
1.0
 26
0.0
 36
0.0
 17
0.0
 27
1.0
 37
0.0
 76
     0
330
1F
  0
MLINESTYLE
  5
18
102
{ACAD_REACTORS
330
17
102
}
330
17
100
AcDbMlineStyle
  2
STANDARD
 70
     0
  3

 62
   256
 51
90.0
 52
90.0
 71
     2
 49
0.5
 62
   256
  6
BYLAYER
 49
-0.5
 62
   256
  6
BYLAYER
  0
ACDBPLACEHOLDER
  5
F
102
{ACAD_REACTORS
330
E
102
}
330
E
  0
DICTIONARYVAR
  5
46
102
{ACAD_REACTORS
330
44
102
}
330
44
100
DictionaryVariables
280
     0
  1
2
  0
DICTIONARYVAR
  5
45
102
{ACAD_REACTORS
330
44
102
}
330
44
100
DictionaryVariables
280
     0
  1
1
  0
XRECORD
  5
2D
102
{ACAD_REACTORS
330
2C
102
}
330
2C
100
AcDbXrecord
280
     1
  1
GEO
  1
GEO-*
  1
*
  1
*
 70
     0
  1
*
  1
*
  0
XRECORD
  5
2E
102
{ACAD_REACTORS
330
2C
102
}
330
2C
100
AcDbXrecord
280
     1
  1
RAK
  1
RAK-*
  1
*
  1
*
 70
     0
  1
*
  1
*
  0
XRECORD
  5
2F
102
{ACAD_REACTORS
330
2C
102
}
330
2C
100
AcDbXrecord
280
     1
  1
RAK&GEO
  1
RAK-*,GEO-*
  1
*
  1
*
 70
     0
  1
*
  1
*
  0
ENDSEC
  0
EOF
